Clutch - Motherless Child tab

-----------------------------------------------------------------------------
			  MOTHERLESS CHILD - Clutch
-----------------------------------------------------------------------------
Tabbed by:murzain
Email:murzain@gmail.com

Tuning:drop d (DADGBe)

This song is super dooper easy, its only two riffs.

1st riff 

e|--------------------------------------------------------------------------|
B|--------------------------------------------------------------------------|
G|--------------------------------------------------------------------------|
D|--------------------------------------------------------------------------|
A|-0--3--5---8--8-8-10---0--3--5---8--8-8-8---------------------------------|
D|-0--3--5---8--8-8-10---0--3--5---8--8-8-8---------------------------------|

2nd riff 

e|-------------|
B|-------------|
G|-------------|
D|-------------|
A|-5----0--3---|
D|-5----0--3---|


Seriously, that's it. And a solo that i may eventually post.
Tap to rate this tab
 
# A B C D E F G H I J K L M N O P Q R S T U V W X Y Z