Clutch - Struck Down tab

Song: Struck Down
Artist: Clutch
Tab Type: Solo
Tabbed by: Roger Atkins 

You might wanna play along to the CD because some of the timings are probably off

Enjoy!

	/ = Slide up
	~ = Hold note/Vibrato
	b = Bend
	r = Release bend

E|--------------------------------------------------------------------------|
B|-------------------------------------------------------------12-----------|
G|---------12---14---14b15r14---12-14-12~~-----------12---14----------------|
D|--/14----------------------------------------14-----------------14~~------|
A|--------------------------------------------------------------------------|
E|--------------------------------------------------------------------------|

E|--------------------------------------------------------------------------|
B|-------------------------------------------------------------12~~---------|
G|---------12---14---14b15r14---12-14-12-------------12---14----------------|
D|--/14----------------------------------------14---------------------------|
A|--------------------------------------------------------------------------|
E|--------------------------------------------------------------------------|

E|--------------------------------------------------------------------------|
B|--17-------12-------------------------------------------------------------|
G|----------------------14~~-------12---14----14b15-------14-12~~-----------|
D|--------------------------------------------------------------------------|
A|--------------------------------------------------------------------------|
E|--------------------------------------------------------------------------|

E|--------------------------------------------------------------------------|
B|-------------------------------------------------------------12~~---------|
G|---------12---14---14b15r14---12-14-12-------------12---14----------------|
D|--/14-----------------------------------------14--------------------------|
A|--------------------------------------------------------------------------|
E|--------------------------------------------------------------------------|

E|--------------------------------------------------------------------------|
B|--------------------------------------------------------------------------|
G|--------------------------------------------------------------------------|
D|---------8----10b11--------------11-11------10b11~~~----------------------|
A|--/10-----------------------------------------------------------------8-8-|
E|--------------------------------------------------------------------------|

E|--------------------------------------------------------------------------|
B|--------------------------------------------------------------------------|
G|--------------------------------------------------------------------------|
D|------------------------------------------------------------------8~~-----|
A|-8-8-8-8-8-10--10~~--------------------8-8-8-8-8-8-8-10--10--10-----------|
E|--------------------------------------------------------------------------|

E|--------------------------------------------------------------------------|
B|--------------------------------------------------------------------------|
G|--------------------------------------------------------------------------|
D|---------8---10---10b11~~~---11-11r10--10b11----11-11---11-11--10/12------|
A|--/10---------------------------------------------------------------------|
E|--------------------------------------------------------------------------|

E|--------------------------------------------------------------------------|
B|--------------------------------------------------------------------------|
G|---------------------------------------12/15---15/17---17/21~~~-----------|
D|--12/15---15/17---17-17~~~---17-17----------------------------------------|
A|--------------------------------------------------------------------------|
E|--------------------------------------------------------------------------|
Tap to rate this tab
 
# A B C D E F G H I J K L M N O P Q R S T U V W X Y Z