Song name
# A B C D E F G H I J K L M N O P Q R S T U V W X Y Z

Clutch - Rising Son tab

Rising Son by Clutch
from Slow Hole To China

Standard Tuning

INTRO          MAIN RIFF  x8
e-------------|-------------|
B-------------|-------------|
G-----------4-|-6~--4~------|
D--2--4--6--4-|-6~--4~--4~--|
A--2--4--6--2-|-4~--2~--4~--|
E--0--2--4----|---------2~--|

CHORUS                                       x2
e---------------------------------------------|
B---------------------------------------------|
G--6666-4444---------------6666-4444------4~--|
D--6666-4444-4444--2~------6666-4444-4444-4~--|
A--4444-2222-4444--2~------4444-2222-4444-2~--|
E------------2222--0~----------------2222-----|

BRIDGE 2:14
e-------------------------------------------------------------------------|
B-------------------------------------------------------------------------|
G-------------------------------------------------------------------------|
D--6~--4~------2h4p2--------------------------2h4p2-----------------------|
A--6~--4~--2h4-------h4-2h4-2h4-2h4-----2-2h4-------h4-2h4-2h4--2h4----2--|
E--4~--2~---------------------------2h4-----------------------------2h4---|

BRIDGE cont.                        x2
e------------------------------------|
B------------------------------------|
G------------------------------------|
D------2h4p2-------------------------|
A--2h4-------h4-2h4-2h4-2h4-----2h4--|
E---------------------------2h4------|

2.35
e-------------------------------------|
B--14~~~~~~~~~-15br-14~~~~~~~~~~------|
G-------------------------------------|
D-------------------------------------|
A-------------------------------------|
E-------------------------------------|

Any corrections please comment
Thanks
Tap to rate this tab
 
# A B C D E F G H I J K L M N O P Q R S T U V W X Y Z