Song name
# A B C D E F G H I J K L M N O P Q R S T U V W X Y Z

Clutch - The Dragonfly tab

The Dragonfly By Clutch
I haven't found any tabs so I made some for the intro and the  "could have been..." 
part, so the pre verse I guess, this is how he played it live

|----------------------------------------------------------------------------------------|
|--3---3-5-3---3---3-5-3---3---3--------------------------3---3--------------------------|
|----4-------4---4-------4---4---4---4------------------4---4---4---4------------------4-|
|----------------------------------5---5-3-5b6--3---3-5-----------5---5-3-5b6--3---3-5---|
|-------------------------------------------------5------------------------------5-------|
|----------------------------------------------------------------------------------------|


then you repeat the
|--------------------------|
|--3---3-5-3---3---3-5-3---|
|----4-------4---4-------4-|
|--------------------------|
|--------------------------|
|--------------------------|



here is the "could have been a swan on a glassy lake" part.

|------------------------------------------------------------|
|------------------------------------------------------------|
|------------------------------------------------------------|
|--3h5--3-0-0-3h5--3-0-0-3-5-5----3h5--3-0-0---3h5--0-3h5--3-|
|--3h5--3-0-0-3h5--3-0-0-3-5-5----3h5--3-0-0---3h5--0-3h5--3-|
|--3h5--3-0-0-3h5--3-0-0-3-5-5----3h5--3-0-0---3h5--0-3h5--3-|

Hope this helps, thanks, feel free to email me with any additions or problems to the 
song! greggorysmith@msn.com
Tap to rate this tab
# A B C D E F G H I J K L M N O P Q R S T U V W X Y Z