Song name
# A B C D E F G H I J K L M N O P Q R S T U V W X Y Z

Clutch - Regulator tab

The Regulator by Clutch

Please visit http://www.cnorin.com


Drop-D tuning.

INTRO

||----------------------------------------------------------------------------------||
||---1p3--------3--1----------------------------------------------------------------||
||--------------------2--1--0--0p1p0------------------------------------------------||
||------------------------------------3--0--3s5~~----3p0------0--3--0--3s5~~---3p0--||
||----------------------------------------------------------------------------------||
||---0--------------------------------3--0--3s5~~----3p0------0--3--0--3s5~~---3p0--||


||----------------------------------------------------------------------------------||
||---1p3-1p3----3--1----------------------------3--------------------------3--------||
||--------------------2--1--0--0p1p0------------------------------------------------||
||------------------------------------3--0--3s5------3p0------0--3--0--3s5----------||
||----------------------------------------------------------------------------------||
||---0---0----------------------------3--0--3s5------3p0------0--3--0--3s5-------3--||


||---------------------------||
||---------------------------||
||---------------------------||
||-----0-----0-----0-----0---||
||--------------------0p3----||
||--0-----0-----0------------||	x3


||---------------------------||
||---------------------------||
||---------------------------||
||-----0-----0-----0-----0---||
||---------------------------||
||--0-----0-----0-----0------||


||-----------------------------------------------|-------------------------||
||--3--6-----3-----1--3----------1--1------------|--1--3-----3-------------||
||------------------------------1--0-------------|-------------------------||
||-----0-----0-----0-----0-----0--0----3-0---0---|-----0-----0-----0-----0-||
||-----------------------------------------------|-------------------------||
||--0-----0-----0-----0-----0--------------3---3-|--0-----0-----0-----0----|| x2
						   _____________________x2

||----0-----0-----0-----0-----0-----0-----0------|-------------------------||
||-----------------------------------------------|--1--3-----3-------------||
||---2-------------------------------------------|-------------------------||
||--2---2-----2-----2-----2-----2-----2-----2----|-----0-----0-----0-----0-||
||-0------0-----0-----0-----0-----0-----0----0---|-------------------------||
||---------------------------------------------3-|--0-----0-----0-----0----|| x2
						   _____________________x2


VERSE

||-------------------------------------------------------------------------||
||-------------------------------------------------------------------------||
||-------------------------------------------------------------------------||
||-----0-----0-----0-----0-----0-----0-----0-----0-----3-----3-----5-----5-||
||--------------------0p3---------------------0p3--------------------------||
||--0-----0-----0-----------0-----0-----0-----------3-----3-----5-----5----|| x2

ooh, I see that lantern trimmed low burning in our home...


||-------------------------------------------------------------------------||
||------------------------------------------3--1--3--6--3--1--3------------||
||-----5-----5-----5-----5-------------------------------------------------||
||-----------------------------5-----5------0-----0-----0-----0-----0-----0||
||--3-----3-----3-----3----------------------------------------------------||
||--------------------------5-----5------0-----0-----0-----0-----0-----0---|| x2

How many times have I prayed...



CHORUS

||---------------------------------------------------------||
||---------------------------------------------------------||
||---------------------------------------------------------||
||-10---7---5s7-7---6--5--3--0--3--0--3---5s7-7----5s7-7---||
||-8----5---3s5-5---6--5--3--0--3--0--3---3s5-5----3s5-5---||
||------------------6--5--3--0--3--0--3--------------------|| x2

Dream with the feathers of angels stuffed beneath your head...

||--0-0---0-------0-0----------------------------||
||--0-0-0-0---0---0-0----------------------------||
||--9-9-9-9-9-9-9-9-9----------------------------||
||--7-7-7-7-7-7-7-7-7---5s7-7----5s7-7-----------||
||--7-7-7-7-7-7-7-7-7---3s5-5----3s5-5-----------||
||--7-7-7-7-7-7-7-7-7----------------------------|| x2

Come with me and walk the longest mile...

___


That is all of the parts, I think.. it's not 100%. 





LYRICS:

I see that lantern trimmed low burning in our home.
And though I feel like crying, I swear tonight, I'll cry no more.

How many times have I prayed
That I would get lost along the way?

Dream with the feathers of angels stuffed beneath your head.
The regulator's swinging pendulum.

Come with me and walk the longest mile.

Is his wallet leather? Is his wallet fat?
For not a year later it's got you lying on your back.
You should have closed your windows and got another dog.
You should have chained up all the doors and switched up all the locks.

And how many times have I prayed
The angels would speed me away.

Dream with the feathers of angels stuffed beneath your head.
The regulator's swinging pendulum.

Come with me and walk the longest mile.

___


Please give feedback.. 
http://www.cnorin.com
Tap to rate this tab
# A B C D E F G H I J K L M N O P Q R S T U V W X Y Z