Song name
# A B C D E F G H I J K L M N O P Q R S T U V W X Y Z

Clutch - One Eye Dollar tab

Can't believe there's not a tab for this song anywhere!  So here it is Clutch heads.  
It's a fairly simple to play, listen to the song for the timing.  This is my first tab so 
I apologize if its sloppy.

Key
Let ring - ~
Slide up - /
Vibrato - v


Intro

e|---------------------|
B|---------------------|
G|---------------------|
D|---------------------|
A|--------9/11~~~------|
E|--------7/9~~~-------|
         Let ring

Verse

e|----------------------------------------------------------------------|
B|-------------11-9v-----------9-11v-----------11-9v------------11-9v---|
G|-------------11-9v-----------9-11v-----------11-9v------------11-9v---|
D|----------------------------------------------------------------------|  X6
A|---9/11-11-11------9/11-11-11------9/11-11-11-------9/11-11-11--------|
E|---7/9--9--9-------7/9--9--9-------7/9--9--9--------7/9--9--9---------|


Chorus

e|-------------------------------|
B|-------------------------------|
G|-------------------------------|
D|-------------------------------| X2
A|---14-11---7-8-9-11---9-9-11---|
E|---12-9----------9----7-7-9----|


LYRICS

Verse

I been working, one eye dollar,
Bye and bye, Lord, bye and bye,
I been working, one eye dollar,
Bye and bye, Lord, bye and bye,

I got the plans to the Oval Office
Bye and bye, Lord, bye and bye,
I got the plans in my front pocket,
Bye and bye, Lord, bye and bye,

Chorus

In the inner chambers of the President,
You will find no crosses, only pentagrams,
Beelzebub and business suits on the hot line, all right,

Verse

I been working, one eye dollar,
Bye and bye, Lord, bye and bye,
I been working, one eye dollar,
Bye and bye, Lord, bye and bye,
I been working like a pack mule every day,
And to think that some of it ends up that way,

Chorus

1600, all the way! That's right brother, all the way!
1600, today's our day!
Tap to rate this tab
# A B C D E F G H I J K L M N O P Q R S T U V W X Y Z