Song name
# A B C D E F G H I J K L M N O P Q R S T U V W X Y Z

Clutch - Mr Freedom tab

-------------------------------------------------------------------------------
                             MR FREEDOM - Clutch
From the Album "Earth Rocker"
-------------------------------------------------------------------------------
Tabbed by: Pine
E-mail: kapineapple92@gmail.com

Tuning: Standard EADGBe

This is my first tab so please feel free to offer any feedback.


Main Riff:
e|---------------------------------------------------------------------------|
B|---------------------------------------------------------------------------|
G|---------------------------------------------------------------------------|
D|---------------------------------------------------------------------------|
A|----------------------------4-----------------------------4----------------|
E|--4h6-6-6-6-6-6-6-6-6-4h5-6-----4h6-6-6-6-6-6-6-6-6-4h5-6------------------|


Chorus: [Mr Freedom big time talker...]
e|---------------------------------------------------------------------------|
B|---------------------------------------------------------------------------|
G|---------------------------------------------------------------------------|
D|---------------------------------------------------------------------------|
A|--7-(6)----6(4)----6(4)----4-----------------------------------------------|
E|-----------------------------(4)-------------------------------------------|

I haven't figured out the entire solo yet, but I'll be sure to update whenever I do :)
Tap to rate this tab
# A B C D E F G H I J K L M N O P Q R S T U V W X Y Z