Song name
# A B C D E F G H I J K L M N O P Q R S T U V W X Y Z

Clutch - Oh Isabella tab

This is a pretty easy song to play.  Just learnt this last night so might be a bit 
wrong in places, typing this from memory.

Standard Tuning

Intro (I think it's just an Em, with second guitar playing
 at 7th fret on A string and 9th on G string)

E||------------------------------------------------------||
B||------------------------------------------------------||
G||-------------------------9----------------------------||
D||-2----------------------------------------------------||
A||-2-----------------------7----------------------------||
E||-0----------------------------------------------------||

Main riff (part 1)

E||------------------------------------------------------||
B||------------------------------------------------------||
G||------------------------------------------------------|| 
D||------------------------------------------------------|| x2
A||-----------------------------------------5-7-5-7------||
E||-7-7-7-7--7--7-7-7-7--7--7-7-7-7--7--5-7--------------||

E||------------------------------------------------------||
B||------------------------------------------------------||
G||------------------------------------------------------|| 
D||------------------------------------------------------|| x1
A||-5-5-5-5--5--5-5-5-5--5--5-5-5-5--5------5-7-5-7------||
E||-------------------------------------5-7--------------||

E||------------------------------------------------------||
B||------------------------------------------------------||
G||------------------------------------------------------|| 
D||------------------------------------------------------|| x1
A||-----------------------------------------5-7-5-7------||
E||-7-7-7-7--7--7-7-7-7--7--7-7-7-7--7--5-7--------------||

Chorus

E||------------------------------------------------------||
B||------------------------------------------------------||
G||------------------------------------------------------||
D||-999999999999999999555555222222222222222222555555-----|| x2
A||-999999999999999999555555222222222222222222555555-----||
E||-777777777777777777333333000000000000000000333333-----||


Main riff (part 2)

E||------------------------------------------------------||
B||------------------------------------------------------||
G||---7---------------7-----------7---------------7------||
D||-9-7---------------7-7-------9-7---------------7-7----|| Repeat
A||-9-5-------5-7-5-7-5-7-------9-5-------5-7-5-7-5-7----||
E||-7-----5-7-----------5-------7-----5-7-----------5----||


Chorus

E||------------------------------------------------------||
B||------------------------------------------------------||
G||------------------------------------------------------||
D||-999999999999999999555555222222222222222222555555-----|| Repeat
A||-999999999999999999555555222222222222222222555555-----||
E||-777777777777777777333333000000000000000000333333-----||


Riff behind the solo

E||------------------------------------------------------||
B||------------------------------------------------------||
G||------------------------------------------------------||
D||-222222222222222222---------222222222222222222--------|| Repeat
A||-222222222222222222---------222222222222222222--------||
E||-000000000000000000-3-320---000000000000000000-3-320--||



Any corrections please let me know.
Tap to rate this tab
 
# A B C D E F G H I J K L M N O P Q R S T U V W X Y Z