Song name
# A B C D E F G H I J K L M N O P Q R S T U V W X Y Z

Clutch - Big News 2 tab

Band: Clutch
Song: Big News 2

With distortion

Section I Play 3 times
E--------------------|
B--------------------|
G----------8---------|
D----------8-10-10---|
A----------6-10-10---|
E----6h7h8----8--8---|

Section II Play 1 time
E--------------------|
B--------------------|
G--------------------|
D--------------------|
A--------------------|
E----6-8-0-1-/6-7-8--|

With wah pedal and distortion

Section III Play 8 times
E---------------------|
B---------------------|
G---------------------|
D---------------------|
A----------6---8-8----|
E----6h7h8---8--------|

Section IV Play 4 times
E---------------------|
B---------------------|
G----------6---8-8----|
D----6h7h8---8--------|
A---------------------|
E---------------------|

Section V Play 4 times Return to section I
E----------------------|
B----------------------|
G-----------8----10-10-|
D----8h9h10---10-------|
A----------------------|
E----------------------|

with distortion

Section VII
E---------------------|
B---------------------|
G---------------------|
D---------------------|
A---------------------|
E----8-7-6--8-7-6-----|

Section VIII Replaces section II at the end of the song
E---------------------|
B---------------------|
G---------------------|
D---------------------|
A---------------------|
E----6-8-0-1-4--------|
Tap to rate this tab
# A B C D E F G H I J K L M N O P Q R S T U V W X Y Z