Song name
# A B C D E F G H I J K L M N O P Q R S T U V W X Y Z

Clutch - High Calibre Consecrator tab

Date: Tue, 7 Nov 1995 12:57:04 -0500 (EST)
From: "Geoffrey S. Smith" 


BAND:		C	L	U	T	C	H
SONG:		H I G H  C A L I B E R  C O N S E C R A T O R
ALBUM:		P A S S I V E  R E S T R A I N T S (e.p.)


I only wrote out the top two strings (you don't need the other four to 
play this unless you want to figure out the solo/lead part at the 
beginning of the song)

intro:
A----------------------------------------------------------------------------
E---0---0-4-0-3---0-4-0-0---0-4-0-3---0-4-0-0--------------------------------
	(repeat a few times)


A---2-------------------2----------------------------------------------------
E---0---0-4-0-3---0-4-0-0-------0-3-0-4---0-3-0-4---0-3-0-4---0-3-0-4---0-4-0
   (repeat this many times)      (it switches to this part once then back).


Verse:
      P.M.-----    -------	---------    -------
A---2----------------------2-------------------------2--------------------
E---0-0-0-0-0-0----0-0-0-0-0----0-0-0-0-0----0-0-0-0-0--------------------
   "We have been waiting and it has begun . . . " (repeat a few times)


another verse part:
A---2--2-2-2-2----------------------------2--2-2-2-2-2-2-2-4-4-2--2-2-2-2-
E---0--0-0-0-0----------------------------0--0-0-0-0-0-0-0-2-2-0--0-0-0-0-
	      "Down at the crossroads..."   (repeat)


Chorus:
A---2-2---2-2--2-5-2-2---2-2-2-2---2-2--2-5-2-5-7-------------------------
E---0-0---0-0--0-3-0-0---0-0-0-0---0-0--0-3-0-3-5-------------------------
   "Cause we're lock, stock, and barrel baby, hook line and sinker . . . "
   "Too little, too late, high caliber consecrator"



That's about all there is to it. If you listen to the song you'll see 
where all of these parts fit in and how many times to play them. 
					Enjoy.

					--Geoff.
Tap to rate this tab
# A B C D E F G H I J K L M N O P Q R S T U V W X Y Z