Song name
# A B C D E F G H I J K L M N O P Q R S T U V W X Y Z

Clutch - Yeti tab

-------------------------------------------------------------------------------
			         The Yeti - Clutch
-------------------------------------------------------------------------------






8.17.07
Tabbed by: Tyler Eibl
Email: Tyler420@gmail.com

Tuning: Standard


Intro
                    
e|--------------------------------------------------|
B|o-----------------------------------------12-12~--|
G|------------------------------------------12-12~--|
D|---7-7------------------------3^------------------|
A|o--5-5--------------------3h5----5p3-5-5----------|
E|-------3-5-5-5-3-1--0-3h5-------------------------| x2
                  
                    
e|-----------------------------------------------------------------------
B|o----------------------------------------------------------------------
G|-----------------------------------------------------------------------
D|--------------3--5p3---------12-12---0-12-10--0-7-0-5--3-2-0--0-3-3-5--
A|o-------3-3h5--------5-3-5---------------------------------------------
E|---3h5-----------------------------------------------------------------
                  

e|--------------------------------------------|
B|o-------------------------------------------|
G|--------------------------------------------|
D|---7-7-7-7-5-5---------7-7-7-5--------------|
A|o--5-5-5-5-3-3-5-5-5-3-5-5-5-3-3-----3------|
E|---------------3-3-3-1-----------3h5--------|
                  
Verse parts

e|-----------------------------------------------|
B|o----------------------------------------------|
G|-----------------------------------------------|
D|------------------3h5-5-5-5-5-5-5-5/7\5-3------|
A|o--5-5-5-3-3-3-5-------------------------------|
E|-----------------------------------------------|x1
     * * * * * *        * * * * * * 

e|-----------------------------------------------|
B|o----------------------------------------------|
G|-----------------------------------------------|
D|------------------3h5-3h5-5-5/7\5-3------------|
A|o--5-5-5-3-3-3-5-------------------------------|
E|-----------------------------------------------|x1
     * * * * * *        

e|-----------------------------------------------|
B|o----------------------------------------------|
G|-----------------------------------------------|
D|-----------------------------------------------|
A|o--5-5-5-3-3-3-5-------------------------------|
E|------------------1h3-3-3-3-3-3-3-3/5\3-1------|x1
     * * * * * *          * * * * *      


e|------------------------------------------------
B|o-----------------------------------------------
G|------------------------------------------------
D|---0-12-12---0-12-10--0-7-0-5--3-2-0--0-3-3-5---
A|o-----------------------------------------------
E|------------------------------------------------
                  

e|--------------------------------------------|
B|o-------------------------------------------|
G|--------------------------------------------|
D|---7-7-7-7-5-5---------7-7-7-5--------------|
A|o--5-5-5-5-3-3-5-5-5-3-5-5-5-3-3-----3------|
E|---------------3-3-3-1-----------3h5--------|

after 2nd verse
e|--------------------------------------------------|
B|o-----------------------------------------12-12~--|
G|------------------------------------------12-12~--|
D|---7-7------------------------3^------------------|
A|o--5-5--------------------3h5----5p3-5-5----------|
E|-------3-5-5-5-3-1--0-3h5-------------------------|


e|-------------------------------|
B|o------------------------------|
G|-------------------------------|
D|----------------3-5p3----------|
A|o--------3-3h5--------5-3------|
E|----3h5------------------------|
                  
pre chorus x2
e|-----------------------------------------------------------|
B|o-------------------------------------------6^-------------|
G|--------------5-7-7--5---5-7------------5------7-5---------|
D|-------3-5/7-----------7---------3-5/7----7--------7\5--3--|
A|o---5-------------------------5----------------------------|
E|-----------------------------------------------------------|
                  
e|--------------------------------------------------------------|
B|o-------------------------------------------------------------|
G|--------------5-7-7--5---5-7----------------------------------|
D|-------3-5/7-----------7-------0-12-12--0-12-10--0-10-12------|
A|o---5---------------------------------------------------------|
E|--------------------------------------------------------------|


e|----------------------------------------------------------------------------|
B|o--------------------------------------7b-----------------------------------|
G|---------------------------------------7b-5-----------------5-7-7-5---5-7---|
D|------------3-5-5-3---3-----------5---------7-5-3-----3-5/7---------7-------|
A|o-----1-3/5---------5-------3-5/7---7--------------5------------------------|
E|---3---------------------5--------------------------------------------------|

solo
e|---------------------------------------------------------------------------------|
B|o-------18-----18--------------------------5-5-----5-5---------------------------|
G|----17b----17b----17br~--------5-7------7--5-5-----5-5---------------------------|
D|----17b----17b----17br~----3/5------5h7--------7-7-----7-7-5-5-3-3-2-2-0-0-0-0-0-|
A|o------------------------5-------------------------------------------------------|
E|---------------------------------------------------------------------------------|


e|-----------------------------------------------------------------|
B|o----------------------------------------------------------------|
G|-----------------------------------------------------------------|
D|----0-3-3-3-0-3-0-0h3-3-5-5-7-7-9-9/11-9-9-7-7-7h9-7-5-3-5-7br---|
A|o----------------------------------------------------------------|
E|-----------------------------------------------------------------|


e|------------------------------------------------------------------------------------------|
B|o--10br---------13--10-10----------10-10--------------------------------------------------|
G|---10br----12fb-----10-10----------10-10--------------------------------------------------|
D|--------12----------------12-12-12-------12-12-12--10-10----------10-10-------------10fb~-|
A|o--------------------------------------------------------12-12-12-------12-12-12-12-------|
E|------------------------------------------------------------------------------------------|

Outro
e|------------------------------------------------------------------------|
B|o-----------------------------------------------------------------------|
G|--------/10-----------/10----------10-----------------------------------|
D|----7-------12-10---------12-10-------12-10-----10---12-----------------|
A|o---5-------------12------------12----------12--13fb----13fbr-----------|
E|------------------------------------------------------------------------|

e|----------------------------------------------------------|
B|o--10b-10b-10b-10br------------------10b----------10------|
G|---10b-10b-10b-10br------------------10b-14-10----10------|
D|---------------------12-10-12b-10--------------12---------|
A|o---------------------------------12----------------------|
E|----------------------------------------------------------|

e|--------------------------------------------------------------|
B|o-------------------------------------------------------------|
G|-------------------------12fb-12fbr-10------------------------|
D|----12-10-10-12-10-12-10---------------12fb~-10-12b-12b-12~---|
A|o-------------------------------------------------------------|
E|--------------------------------------------------------------|

e|-------------------------------|         ------------------------------|
B|o------------------------------|         ------------------------------|
G|-------------------------------|         ------------------------------|
D|-------------------------------|         ------------------------------|
A|o--------------8-------------8-|         --------------8-------------8-|
E|----10-10-8-10----10-10-8-10---| x3 then ---10-10-8-10----10-10-8-10---|

e|------------------------------------------------------------|
B|o-----------------------------------------------------------|
G|------7-5---------------------------------------------------|
D|----5-----5-2h3p2p0-----7-7-7-9br-(9br)-5--3-2-3-2-3-2-0-0--|
A|o-----------------------------------------------------------|
E|------------------------------------------------------------|

e|----10-10-10-10-10-10-10-10-----|
B|o---10-10-10-10-10-10-10-10-----|
G|--------------------------------|
D|--------------------------------|
A|o-------------------------------|
E|--------------------------------|x2

e|---------------------------------------------|
B|o--------------------------------8b------7~--|
G|----7-5-7-5-7-5-7fbr---7-5-7-5-7----7---/7~--|
D|---------------------------------------------|
A|o--------------------------------------------|
E|---------------------------------------------|

these are the barely audible notes that come in at the end.
e|-----------------------------------------------------------------|
B|o----------------------------------------------------------------|
G|-----------------------------------------------------------------|
D|--------5----------------5---3h5-3------3h5-3-5-2-3-2-0--2-0-2-0-|
A|o---/7----8p7-7h8p7-5--5---5-------5--5--------------------------|
E|-----------------------------------------------------------------|

e|---------------------------------------------|
B|o--------------------------------------------|
G|---------------------------------------------|
D|---------------------------------------------|
A|o--------------------------------------------|
E|----(8)-7-8-7h8-7-5-3--3~-5~-3~--------------|
Tap to rate this tab
# A B C D E F G H I J K L M N O P Q R S T U V W X Y Z