Song name
# A B C D E F G H I J K L M N O P Q R S T U V W X Y Z

Clutch - Raised By Horses tab

"Raised by Horses"
From "Jam Room"
Clutch
Words and Music by Clutch
Copyright 1999 River Road Records


(dist. and wah)
  Intro:
   (A)                                             (end of intro)
E------------------------|------------------------|--------------|
B------------------------|------------------------|--------------|
G------------------------|------------------------|--------------|
D------------------------|------------------------|--------------|
A--3-0----3-0---5b6r5-3--|-3-0----3-0---5b6r5-3---|-5b6r5--------|
E------------------------|------------------------|--------------|

Verse: (quickly)

E---------------------------------------------|
B---------------------------------------------|
G-------------------------------7\5/7---5-----|
D--5/7-7-5/7-----5/7-7-5/7--5-7-7\5/7---5-----|
A--5/7-7-5/7-----5/7-7-5/7--5-7-5\3/5---3-----|
E--3/5-5-3/5-----3/5-5-3/5--3-5---------------|

Pre-chorus: (wah)
                           (start here 2nd time)
E------------------------|----------------------------------------------|
B------------------------|----------------------------------------------|
G------------------------|----------------------------------------------|
D--7--5------------------|----------------------------------------------|
A--------6--3------------|---3--5-5-------3-3----3--5-5--3---/7-5-3-----|
E--------------5---3-5-3-|-5----------3-5------5-----------5--------5-3-|

Chorus:
                                               rpt. 1st half, then:
E-----------------------|-------------------------|-------------|
B-----------------------|-------------------------|-------------|
G-----------------------|-------------------------|-------------|
D-----------------------|-------------------------|-------------|
A------3-----------5-3--|-----3------5-3----3-----|-7--6--5-----|
E--5-5---5-3-4-4-5------|-5-5---5-3------5----5-3-|-------------|

There's some lead stuff, mostly in the "frightened? well..." part, which I'm sure is improvised live.

Good luck.
Tap to rate this tab
# A B C D E F G H I J K L M N O P Q R S T U V W X Y Z