Song name
# A B C D E F G H I J K L M N O P Q R S T U V W X Y Z

Clutch - Who Wants To Rock tab

Help us improve GuitareTab! Take a short survey!
#----------------------------------PLEASE NOTE---------------------------------#
#This file is the author's own work and represents their interpretation of the #
#song. You may only use this file for private study, scholarship, or research. #
#------------------------------------------------------------------------------##


  Here we go with another wonderful Clutch installment. "Who Wants To Rock" is kinda in the  vein of Zep's 
Dog" with the call and response type thing. As usual, dial in a fat tone and shred those strings, Tim and 
Boys would be proud. Oh, I almost forgot, make sure the amp is on 11. Also, have a wah at the ready my friends.


 JP cymbal fade in..


 E---------------------------------------------------------------|
 B---------------------------------------------------------------|
 G---------------------------------------------------------------|
 D----5--------8------10---------5-5-5\---3-/---5---8-----5------|
 A----5--------8------10---------5-5-5\---3-/---5---8-----5------|
 E----3--------6------8----------3-3-3\---1-/---3---6-----3------|

   "Hey Hey now, what's that smell?"

   (The wah part sounds maybe one octave higher) Repeat for next verse.

 E---------------------------------------------------------------|
 B---------------------------------------------------------------|
 G---------------------------------------------------------------|
 D---------------------------------------------------------------|
 A----------------3----------------------------3 3-4-3-----------|
 E---3--6 -3---6----------3---6--3--6-3--6--------------6---3----|

  "What you need, you know I got!"

 E------------------------------------------|
 G------------------------------------------|
 D---5--3-------------------------5---------|
 A----------5-4--3---------3------5---------|
 E--------------------6-------6---3---------|

  "So hands up, who wants to ROCK!!" (Repeat 2x)


 E-----------------------------------------------------------5---3----|
 B---------------------------------3---5---3-----------------5---3----|
 G---------------------------------3---5---3-----------------5---3----|
 D--5-5-5-5/----3----5-----3---5--------------5--3--5-5-5-5--5---3----|
 A--5-5-5-5/----3----5------------------------------5-5-5-5-----------|
 E--3-3-3-3/----1----3------------------------------3-3-3-3-----------|


 E-----------------------------------------------|
 B-----------------------------------------------|
 G-----------------------------------------------|
 D---5-----8----10--------5--5-5-\---3----5------|
 A---5-----8----10--------5--5-5-\---3----3------|
 E---3-----6----8---------3--3-3-\---1----3------|
                                                 * Repeat measure and end
Related for Who Wants To Rock tab