Song name
# A B C D E F G H I J K L M N O P Q R S T U V W X Y Z

Clutch - Four Lords tab

Help us improve GuitareTab! Take a short survey!
-------------------------------------------------------------------------------
			        Four Lords (And one more) - Clutch
-------------------------------------------------------------------------------






8.17.07
Tabbed by: Tyler Eibl
Email: Tyler420@gmail.com

Tuning: Standard


Intro
                    
e|------------------------------------------------|
B|o-----------------------------------------------|
G|------------------------------------------------|
D|------------------------------------------------|
A|o-----------------------------------------------|
E|----5-3-5-5-5-5-0-3-5-5--0-3-5-5-5-5-0-3-5-5----|
                  

Verse
e|------------------------------------------------|
B|o-----------------------------------------------|
G|------------------------------------------------|
D|------------------------------------------------|
A|o-----------------------------------------------|
E|----0-3-5-5-5-5-0-3-5-5--0-3-5-5-5-5-0-3-5-5----|
                    
Pre-Chorus
e|-------------------------------------------------|
B|o-----14~14-14~----------14b---------------------|
G|------14-14-14~----------14b---------------------|
D|---7-----------12p10-12--------12fb(10)----------|
A|o--5-----------------------------------12~-------|
E|-------------------------------------------------|

Chorus                  
e|-------------------------------|
B|o------------------------------|
G|-------------------------------|
D|----------------5--------------|
A|o---7----5-7----3--7---5-7-----|
E|----5----3-5-------5---3-5-----| x4

Pre-Chorus 2
e|---------------------------------------------|
B|o-----------8b^------------------------------|
G|-------7/9-------10p9p7----------------------|
D|----7-------------------7~-------------------|
A|o---5----------------------------------------|
E|---------------------------------------------|
                  
Outro Riff                
e|---------------------------------------------|
B|o---14~--------(14)--------------------------|
G|----14~--14h16--14---12~---------------------|
D|---------------------------------------------|
A|o--------------------------------------------|
E|---------------------------------------------|
Related for Four Lords tab