Song name
# A B C D E F G H I J K L M N O P Q R S T U V W X Y Z

Clutch - Pure Rock Fury tab

"Pure Rock Fury"
Clutch
Pure Rock Fury
Transcribed by Dan Nadolny

with distortion!
(intro)                 (seems to work with heavy dist.)

  Dm7  Em7  Fm7   Gm7
E----------------------|-10-------10-------10-------10-------10--------|
B--6----8----9----11---|----11-------11-------11-------11-------11-----|
G--5----7----8----10---|-------10-------10-------10-------10-------10--|
D--x----x----x----x----|-----------------------------------------------|
A--5----7----8----10---|-----------------------------------------------|
E----------------------|-----------------------------------------------|

(verse) (4x)
  D5
E------------------------------------------------------------------|
B------------------------------------------------------------------|
G------------------------------------------------------------------|
D-12----12-10--12----12-10--12-12-10--12----12-12-10-/15-12--------|
A-12----12-10--12----12-10--12-12-10--12----12-12-10-/15-12--------|
E-10----10--8--10----10--8--10-10--8--10----10-10--8-/13-10--------|

(chorus) (4x and quickly!)

E-------------------------------------------------------|
B-------10----------------------------------------------|
G-------10-------12-10-12-10----------------------------|
D-10h12----12----------------12-10-12-10----------------|
A----------------------------------------10-8-10-8------|
E--------------------------------------------------10---|

Other part and ending:

E-----------------------|
B-----------------------|
G-----------------------|
D--12---------7-10--12--|
A--12---------7-10--12--|
E--10---------5--8--10--|
Tap to rate this tab
 
# A B C D E F G H I J K L M N O P Q R S T U V W X Y Z