Song name
# A B C D E F G H I J K L M N O P Q R S T U V W X Y Z

Clutch - Brazenhead tab

Song - Brazenhead
Band - Clutch
Album  - Pure Rock Fury
Standard Tuned (EBGDAE)
Tabbed By - The MonkeyMan

Intro-
|-----------------------------------------------------|
|-----------------------------------------------------|
|-----------------------------------------------------|
|-77777777777777777575-------------77--77--77--77--7--|
|---------------------75---------55--55--55--55--55-5-|
|-----------------------85555555----------------------|

Verse-
|-------------------------------------------------|
|-------------------------------------------------|
|-XXXXXXXXXXXXXXXX7-XXXX7-XXXX7-XX7-XXXX7-XXXX7-7-|
|-XXXXXXXXXXXXXXXX7-XXXX7-XXXX7-XX7-XXXX7-XXXX7-7-|
|-XXXXXXXXXXXXXXXX5-XXXX5-XXXX5-XX5-XXXX5-XXXX5-5-|
|-------------------------------------------------|

Pre-Chorus-
|--------------------|
|--------------------|
|--------------------|
|-7-----(7)7-----(7)-|
|-7-----(7)7-----(7)-|
|-5-----(5)5-----(5)-|

Chorus-
|---------------|
|---------------|
|---------------|
|------------75-|
|-7757-57-57553-|
|-5535-35-353---|

Unfortunatly.. i havent got the bride yet.. But i have the second part... same a Verse, 
it as if ur strumin-
|---------------------------------|
|---------------------------------|
|-7-XXXX7-XXXX7-XX7-XXXX7-XXXX7-7-|
|-7-XXXX7-XXXX7-XX7-XXXX7-XXXX7-7-|
|-5-XXXX5-XXXX5-XX5-XXXX5-XXXX5-5-|
|---------------------------------|

Thats about it, accept for the bridge there... enjoy, hope it gets ya thinkin
Tap to rate this tab
# A B C D E F G H I J K L M N O P Q R S T U V W X Y Z