Song name
# A B C D E F G H I J K L M N O P Q R S T U V W X Y Z

Clutch - The Mob Goes Wild tab

----------------------------------------------------------------------------
                      The Mob Goes Wild - Clutch
----------------------------------------------------------------------------
Tabbed by: Aenima42
Email: NOSPAMxmudvaynex_ld50@hotmail.com

Tuning: Standard

Legend
----------------------------------------------------------------------------
nh - natural harmonic
 ph - pinch harmonic
pm - palm mute
 x - muted string
h - hammer on
 p - pull off
/ - slide
b - bend
 ~~ - vibrato
<7> - natural harmonic
 x/// - pick scrape
---------------------------------------------------------------------------- 

I'm pretty sure this is correct. It sounds good to me. 


e|-------------------------------------------------------------------------|
b|---------------------------77--------77----------------------------------|
g|---------------------------77--------77----------------------------------|
d|-9-------9-----------------55--------55-------------------------5--------|
a|-7-7-7-7-7-7-7-7---7--9----66--7-9---66--7-5-5-5--7-5-5-5--7-5-5-7-------|
e|---5-5-5---5-5-5---5--7--------5-7---------------------------------------|

e|-------------------------------------------------------------------------|
b|-------------------------------------------------------------------------|
g|-------------------------------------------------------------------------|
d|-------5--------5--------------------------------------------------------|
a|--7-5-5-7--7-5-5-7--7-5-5-5--7-5-5-5--7-5-5-5--7-5-5-5-------------------|
e|-------------------------------------------------------------------------|

e|-------------------------------------------------------------------------|
b|-------------------------------------------------------------------------|
g|---------------------------7---------------------------------------------|
d|--9-7-7-7--9-7-7-7--9-7-7--5-9--(x3 then)--------------------------------|
a|--7-5-5-5--7-5-5-5--7-5-5----7-------------------------------------------|
e|-------------------------------------------------------------------------|

e|-------------------------------------------------------------------------|
b|-------------------------------------------------------------------------|
g|-------------------------------------------------------------------------|
d|--9-7-7-7--9-7-7-7------(go back and do the above thing again,repeat)----|
a|--7-5-5-5--7-5-5-5--5/7--------------------------------------------------|
e|--------------------3/5--------------------------------------------------|

e|-------------------------------------------------------------------------|
b|-------------------------------------------------------------------------|
g|--------7------------------7---------------------------------------------|
d|----7-9-5-9-7----------7-9-5-9-7-----------------------------------------|
a|----5-7---7-5--2bp0----5-7---7-5--2bp0----------------------------------|
e|-(0)----------------3bp0----------------3bp0-----------------------------|
(do the 0 the first time only)~~(x 4)

e|-------------------------------------------------------------------------|
b|-------------------------------------------------------------------------|
g|-------------------------------2--2-2-2-2-2--6666666/8888888-------------|
d|-2--2-2-2-2-2------------------2--2-2-2-2-2--5555555/7777777-------------|
a|-2--2-2-2-2-2-5555555/7777777--0--0-0-0-0-0--3333333/5555555-------------|
e|-0--0-0-0-0-0-3333333/5555555--------------------------------------------|
(x2)

e|-------------------------------------------------------------------------|
b|-------------------------------------------------------------------------|
g|---------------------------7---------------------------------------------|
d|--9-7-7-7--9-7-7-7--9-7-7--5-9--(x1 then)--------------------------------|
a|--7-5-5-5--7-5-5-5--7-5-5----7-------------------------------------------|
e|-------------------------------------------------------------------------|
(after first time, use x3, then)
e|-------------------------------------------------------------------------|
b|-------------------------------------------------------------------------|
g|-------------------------------------------------------------------------|
d|--9-7-7-7--9-7-7-7------(go back and do the above thing again,repeat)----|
a|--7-5-5-5--7-5-5-5--5/7--------------------------------------------------|
e|--------------------3/5--------------------------------------------------|

e|-------------------------------------------------------------------------|
b|-------------------------------------------------------------------------|
g|--------7------------------7---------------------------------------------|
d|----7-9-5-9-7----------7-9-5-9-7-----------------------------------------|
a|----5-7---7-5--2bp0----5-7---7-5--2b0-----------------------------------|
e|-(0)----------------3bp0----------------3bp0-----------------------------|
(do the 0 the first time only)~~(x 4)

e|-------------------------------------------------------------------------|
b|-------------------------------------------------------------------------|
g|-------------------------------2--2-2-2-2-2--6666666/8888888-------------|
d|-2--2-2-2-2-2------------------2--2-2-2-2-2--5555555/7777777-------------|
a|-2--2-2-2-2-2-5555555/7777777--0--0-0-0-0-0--3333333/5555555-------------|
e|-0--0-0-0-0-0-3333333/5555555--------------------------------------------|
(x2 then)
e|-------------------------------------------------------------------------|
b|-------------------------------------------------------------------------|
g|-------------------------------2--2-2-2-2-2--6666666/8888888/10----------|
d|-2--2-2-2-2-2------------------2--2-2-2-2-2--5555555/7777777/9--(ring)---|
a|-2--2-2-2-2-2-5555555/7777777--0--0-0-0-0-0--3333333/5555555/7-----------|
e|-0--0-0-0-0-0-3333333/5555555--------------------------------------------|

e|-------------------------------------------------------------------------|
b|-------------------------------------------------------------------------|
g|-------------------------------------------------------------------------|
d|-------------------------------------------------------------------------|
a|-5---5----5-5------------------------------------------------------------|
e|--7-7--7------7----------------------------------------------------------|

e|-------------------------------------------------------------------------|
b|-------------------------------------------------------------------------|
g|-------------------------------------------------------------------------|
d|---------5--------------------(8 times)----------------------------------|
a|-----5--7--7-5-----------------------------------------------------------|
e|-(0)----------7--5---3bp0------------------------------------------------|

(the 0 is only used the first time, b/c when you bend the 3 and release, it makes the 0 already)
(this part is over the solo, i'm not tabbing the solo though)

e|-------------------------------------------------------------------------|
b|-------------------------------------------------------------------------|
g|-------------------------------------------------------------------------|
d|---555555/7777777/9------------------------------------------------------|
a|---333333/5555555/7--(let ring)------------------------------------------|
e|-------------------------------------------------------------------------|

e|-------------------------------------------------------------------------|
b|-------------------------------------------------------------------------|
g|-------------------------------------------------------------------------|
d|-------------------------5-----------------------------------------------|
a|--5-7-7-7-5-7-7-7--5-7-7--7------(x2)------------------------------------|
e|-------------------------------------------------------------------------|

e|-------------------------------------------------------------------------|
b|-------------------------------------------------------------------------|
g|-------------------------------2--2-2-2-2-2--6666666/8888888/10----------|
d|-2--2-2-2-2-2------------------2--2-2-2-2-2--5555555/7777777/9--(ring)---|
a|-2--2-2-2-2-2-5555555/7777777--0--0-0-0-0-0--3333333/5555555/7-----------|
e|-0--0-0-0-0-0-3333333/5555555--------------------------------------------|
(x 4)

thats pretty much it. there is room for improvements. Please leave comments on how to improve this tab.



Tap to rate this tab
 
# A B C D E F G H I J K L M N O P Q R S T U V W X Y Z