Song name
# A B C D E F G H I J K L M N O P Q R S T U V W X Y Z

Clutch - Bottoms Up Socrates tab

-------------------------------------------------------------------------------
			        Bottoms up, Socrates - Clutch
-------------------------------------------------------------------------------


8.16.07
Tabbed by: Tyler Eibl
Email: Tyler420@gmail.com

Tuning: Standard


Intro/Verse

e|---------------------------------------------|
B|o--------------------------------------------|
G|-----------------7-9-7-----------------------|
D|-----------------------\7--5-5-7-5-/9--------|
A|o---7-7-7-7-7-7-----------------------7------|
E|---------------------------------------------|

e|------------------------------------|
B|o-----------------------------------|
G|------------7-9-7------------/9-----|
D|------------------\7--5-7-5---------|
A|o---7-------------------------------|
E|------------------------------------|

Chorus

e|------------------------------------------------------------|
B|o-----------------------------------------------------------|
G|------------------------------------------------------------|
D|---------5----------7-7-9-9-12-----7-5--------7-7-9-9-------|
A|o------5---7p5-7----5-5-7-7-10---------7p5-7--5-5-7-7-5-----|
E|----0---------------------------0---------------------3-----| x2


  2nd verse fill
e|---------------------|
B|o--------------------|
G|----9-7--------------|
D|--------9-7-5--------|
A|o-------------7-5----|
E|---------------------|


e|----------------|
B|o---------------|
G|----------------|
D|-----------0-2--|
A|o------0h2------|
E|---0-3----------| x4

e|--------------------------|---|
B|o-------------------------|---|
G|--------------------------|---|
D|---9-7--------------------|---|
A|o--7-5-------5---5---5----|-7-|
E|-------7-5-7-3-0-3-0-3----|-5-|


Solo

e|--------------------------------------------------|
B|o-------------------------------------------------|
G|-------------------------------------5b6-5-3-5fb--|
D|----5p3-5p3-5p3-5p3-5p3-5p3-5p3-5p3---------------|
A|o-------------------------------------------------|
E|--------------------------------------------------|

e|--------------------------------------------------|
B|o-------------------------------------------------|
G|-------------------------------------5fbr-3-------|
D|----5p3-5p3-5p3-5p3-5p3-5p3-5p3-5p3---------5-----|
A|o-------------------------------------------------|
E|--------------------------------------------------|

e|-----------------------------------------------------|
B|o----------------------------------------------------|
G|-----------------------------------------------------|
D|----3h5-3h5-3h5-3h5-3h5-3h5-5p3p0-5br--3-5-3---------|
A|o--------------------------------------------3p1-----|
E|-------------------------------------------------5---|

e|----------------|  |---------|
B|o---------------|  |---------|
                                        --
G|----------------|  |---------|
D|------------3-5-|  |---------|
A|o-------3h5-----|  |--7-5-2--|
E|----3-6---------|x4|--5-3-0--|

outro
e|---------|
B|---------|
                    --
G|---------|
D|---------|
A|--7-5-2--|
E|--5-3-0--|

Tap to rate this tab
 
# A B C D E F G H I J K L M N O P Q R S T U V W X Y Z