Song name
# A B C D E F G H I J K L M N O P Q R S T U V W X Y Z

Clutch - Burning Beard tab

Help us improve GuitareTab! Take a short survey!
Clutch - Burning Beard
Tabbed by 'Shiftydoodaa'

Main Riff/Verse:

e|------------------------|
b|------------------------|
g|------------------------| x8
d|----------------5-5-5p3-|
a|--3h5--3h5--3h5---------|
d|-0----0----0------------|

Chorus:

e|------------------|
b|------------------|
g|------------------| x4
d|-5-3---3---3--3-5-|
a|-----5---5---5----|
d|------------------|

Main Riff 2/Verse 2:

e|---------------------------------------|
b|---------------------------------------|
g|---------------------------12-12-12p10-| x8
d|---------------------------------------|
a|---------------------------------------|
d|-0-10h12--0-10h12--0-10h12-------------|


Order of play:

MAIN RIFF 1/VERSE 1 x8

CHORUS              x4

MAIN RIFF 1/VERSE 1 x4

CHORUS              x4

MAIN RIFF 1/VERSE 1 x4

MAIN RIFF 2/VERSE 2 x8

END
Related for Burning Beard tab