Guitaretab - guitar tabs
Song name
# A B C D E F G H I J K L M N O P Q R S T U V W X Y Z

Clutch - The Soapmakers tab

----------------------------------------------------------------------------
			  The Soapmakers  Clutch
----------------------------------------------------------------------------
Tabbed by: Tom Hermsdorfer
Email: chubbs721@hotmail.com
 
 This song is a song that'll grab you by the balls and make you scream like
a biatch! it suprises me that no one tried tabbin it yet. so i took the
liberty to do so. accuracy, i'd rate at 98%. enjoy!

Tuning: DADgbe
e|----------------------------------------------------------|
B|----------------------------------------------------------|
G|----------------------------------------------------------|
D|----------------------------------------------------------| 2x
A|--------12---------------------------12------------8h10p8-|
D|-0-10h12--12--10h12p103h5p3--0-10h12--12-10h12p10--------|

 (Wah pedal)
e|--------------------------|
B|--------------------------|
G|-7p5----------------------|
D|-----7p5h7----------------|
A|-----------5-3-0--5-3-----|
D|----------------------5-3-|

e|-----------------------------|
B|-----------------------------|
G|-----------------------------|
D|-----------------------------|8x
A|--------12-------------------|
D|-0-10h12--12--10h12p103h5p3-|

(these are just the chords, if you know this song(good 4 u), find the rhythm)
e|-------------------------|
B|-------------------------|
G|-------------------------|
D|-7--8--7--10--9--8--7--6-|
A|-7--8--7--10--9--8--7--6-|
D|-7--8--7--10--9--8--7--6-|

e|-----------------------------|
B|-----------------------------|
G|-----------------------------|
D|-----------------------------|3x
A|--------12-------------------|
D|-0-10h12--12--10h12p103h5p3-|

e|-----------------------------|
B|-----------------------------|
G|-----------------------------|
D|-----------------------------|1x
A|--------12------------8h10p8-|
D|-0-10h12--12-10h12p10--------|

e|-----------------------------|
B|-----------------------------|
G|-----------------------------|
D|-----------------------------|4x
A|--------12-------------------|
D|-0-10h12--12--10h12p103h5p3-|

e|-------------------------|
B|-------------------------|
G|-------------------------|
D|-7--8--7--10--9--8--7--6-|
A|-7--8--7--10--9--8--7--6-|
D|-7--8--7--10--9--8--7--6-|
[ Tab from: http://www.guitaretab.com/c/clutch/69507.html ]
e|---------------------------------------------------------------|
B|------------------------------------------10b--10-10-10b10-10-|
G|------------------------------------------10b--10-10-10b10-10-|
D|---------------------------------------------------------------|2x
A|--------12-------------8h10p8--------12------------------------|
D|-0-10h12--12--10h12p10-------0-10h12--12----------------------|

e|-------------------------------|
B|-8-----------------------------|
G|---10--------------------------|
D|------10-7-------------3h5-3-1-|
A|-----------8-7-5-4-----3h5-3-1-|
D|--------------------5--3h5-3-1-|

e|-----------------------|
B|-----------------------|
G|-----------------------|
D|-0-3-00-3-00-3-00-3-|
A|-0-3-00-3-00-3-00-3-|
D|-0-3-00-3-00-3-00-3-|

e|----------------------------|
B|----------------------------|
G|-------------------5/7--7-7-|
D|-------------------5/7--7-7-|
A|---3h5p3h5p3p0-----3-5--5-5-|
D|-0-------------3-5----------|

e|------------------------------------|
B|------------------------------------|
G|-------77-11/12--777--12\11---------|
D|-------66-10/11--666--11\10---6--66-|
A|-------55--9/10--555-10\9----5--55-|
D|-0000000000000000000000000000000000-|
pm***********************************

e|--------------------------------------------|
B|--------------------------------------------|
G|-77-11/12--777--777-12\11---12\11-777-77777-|
D|-66-10/11--666--666-11\10---11\10-666-66666-|
A|-55--9/10--555--555-10\9----10\9--555-55555-|
D|-000000000000000000000000000000000000000000-|
pm*******************************************

e|---------------------------------------------------------------|
B|------------------------------------------10b--10-10-10b10-10-|
G|------------------------------------------10b--10-10-10b10-10-|
D|---------------------------------------------------------------|2x
A|--------12-------------8h10p8--------12------------------------|
D|-0-10h12--12--10h12p10-------0-10h12--12----------------------|

e|-------------------------------|
B|-8-----------------------------|
G|---10--------------------------|
D|------10-7-------------3h5-3-1-|
A|-----------8-7-5-4-----3h5-3-1-|
D|--------------------5--3h5-3-1-|

e|-----------------------|
B|-----------------------|
G|-----------------------|
D|-0-3-00-3-00-3-00-3-|
A|-0-3-00-3-00-3-00-3-|
D|-0-3-00-3-00-3-00-3-|

e|----------------------------|
B|----------------------------|
G|-------------------5/7--7-7-|
D|-------------------5/7--7-7-|
A|---3h5p3h5p3p0-----3-5--5-5-|
D|-0-------------3-5----------|

e|-------------------------|
B|-------------------------|
G|-------------------------|
D|-------------------------| 5x
A|-5-3-5-3-/-8-5-3-5-3-----|
D|---------------------5-3-|

e|---|
B|---|
G|---|
D|-3-| bend the strings slightly
A|-3-|
D|-3-|

| /  slide up
| \  slide down
| h  hammer-on
| p  pull-off
| ~  vibrato
| +  harmonic
| x  Mute note
============================================================================
Related for The Soapmakers tab