Song name
# A B C D E F G H I J K L M N O P Q R S T U V W X Y Z

Clutch - Come On Motherfucker tab

----------------------------------------------------------------------------
		     COME ON MOTHERFUCKER - Clutch
----------------------------------------------------------------------------
Tabbed by:theshroomman
Email:theshroomman@hotmail.com

#1).
   ~
e|--------------------------------------------------------------------------|
B|--------------------------------------------------------------------------|
G|--------------------------------------------------------------------------|
D|--------------------------------------------------------------------------|
A|-----0--------------------------------------------------------------------|
E|-2-0---2------------------------------------------------------------------|
#2).

e|--------------------------------------------------------------------------|
B|--------------------------------------------------------------------------|
G|--------------------------------------------------------------------------|
D|--------------------------------------------------------------------------|
A|-4-4-4-4-4-2-4-4-2-7------------------------------------------------------|
E|-2-2-2-2-2-0-2-2-0-5------------------------------------------------------|
#3).

e|--------------------------------------------------------------------------|
B|--------------------------------------------------------------------------|
G|--------------------------------------------------------------------------|
D|--------------------------------------------------------------------------|
A|-4-2-9-7------------------------------------------------------------------|
E|-2-0-7-5------------------------------------------------------------------|
#4).

e|--------------------------------------------------------------------------|
B|--------------------------------------------------------------------------|
G|-----7--------------------------------------------------------------------|
D|-----7--------------------------------------------------------------------|
A|---0-7--------------------------------------------------------------------|
E|-0---5--------------------------------------------------------------------|
#5).

e|--------------------------------------------------------------------------|
B|--------------------------------------------------------------------------|
G|--------------------------------------------------------------------------|
D|--------------------------------------------------------------------------|
A|-9-8-7-8-9----------------------------------------------------------------|
E|-7-6-5-6-7----------------------------------------------------------------|
#6).

e|--------------------------------------------------------------------------|
B|--------------------------------------------------------------------------|
G|--------------------------------------------------------------------------|
D|---x-x---x-x-x-x----------------------------------------------------------|
A|-2-x-x-2-x-x-x-x----------------------------------------------------------|
E|-0-x-x-0-x-x-x-x----------------------------------------------------------|
#7).

e|--------------------------------------------------------------------------|
B|--------------------------------------------------------------------------|
G|--------------------------------------------------------------------------|
D|-----x-x------------------------------------------------------------------|
A|-2-2-x-x------------------------------------------------------------------|
E|-0-0-x-x------------------------------------------------------------------|
#8).

e|--------------------------------------------------------------------------|
B|--------------------------------------------------------------------------|
G|-7-7-7-7-7----------------------------------------------------------------|
D|-7-7-7-7-7----------------------------------------------------------------|
A|-5-5-5-5-5----------------------------------------------------------------|
E|--------------------------------------------------------------------------|
#9).

e|--------------------------------------------------------------------------|
B|--------------------------------------------------------------------------|
G|--------------------------------------------------------------------------|
D|-9-7----------------------------------------------------------------------|
A|-7-5----------------------------------------------------------------------|
E|--------------------------------------------------------------------------|
#10).

e|--------------------------------------------------------------------------|
B|--------------------------------------------------------------------------|
G|--------------------------------------------------------------------------|
D|---x-x--------------------------------------------------------------------|
A|-2-x-x-2-----9-8-7-4-5----------------------------------------------------|
E|-0-x-x-0-0-0-7-6-5-2-3----------------------------------------------------|
#11).

e|--------------------------------------------------------------------------|
B|--------------------------------------------------------------------------|
G|--------------------------------------------------------------------------|
D|--------------------------------------------------------------------------|
A|-2------------------------------------------------------------------------|
E|-0------------------------------------------------------------------------|

order:
 #1)x8
 #2)x4
 #1)x10
 #2)x8
 #3)x1
 #2)x4                      this tab is 99% correct
 #3)x1
 #1)x6
 #4)x1
 #5)x1
 #6)x1
 #7)x1
 #6)x1
 #7)x1
 #6)x1
 #7)x1
 #6)x1
 #8)x1
 #6)x1
 #7)x1
 #6)x1
 #7)x1
 #6)x1
 #7)x1
 #9)x1
 #5)x1
 #6)x1
 #7)x1
 #6)x1
 #7)x1
 #6)x1
 #7)x1
 #6)x1
 #8)x1
 #6)x1
 #7)x1
 #6)x1
 #7)x1
 #6)x1
 #7)x1
 #9)x1
 #5)x1
 #10)x4
 #6)x1
 #7)x1
 #6)x1
 #7)x1
 #6)x1
 #7)x1
 #6)x1
 #8)x1
 #6)x1
 #7)x1
 #6)x1
 #7)x1
 #6)x1
 #7)x1
 #9)x1
 #5)x1
 #10)x4
 #11)x1

| ~  vibrato
| x  mute
============================================================================
Tap to rate this tab
# A B C D E F G H I J K L M N O P Q R S T U V W X Y Z