Song name
# A B C D E F G H I J K L M N O P Q R S T U V W X Y Z

Clutch - Electric Worry tab

This is the way i play it, and it sounds good to me.

e|------------------------------------------------------------|
B|------------------------------------------------------------|
G|--------5---5----7p5----------------------------------------|
D|5---7-7-------7------5-7---5----5-5-7---7----5-5p0----------|
A|--7--------------------------7--------0---------------------|
E|---------------------------------------------------8-5------|


e|-------------------------------------------|
B|-------------------------------------------|
G|-------------------------------------------|
D|-5-7---5---5-7-----------------------------|
A|-------------------------------------------|
E|-----8---------8-5h8-5~~~~~----------------|

e|-----------------|
B|-----------------|
G|---7-5----5-3----|
D|-7-7-5--5-5-3----|
A|-7-5-3--5-3-1----|
E|-5------3--------|
Tap to rate this tab
 
# A B C D E F G H I J K L M N O P Q R S T U V W X Y Z