Guitaretab - guitar tabs
Song name
# A B C D E F G H I J K L M N O P Q R S T U V W X Y Z

Clutch - You Cant Stop Progress tab

-------------------------------------------------------------------------------
			     You Can't Stop Progress - Clutch
-------------------------------------------------------------------------------
5.21.07
Tabbed by: Tyler420
Email: Tyler420@gmail.com
Tuning: Standard


  Intro/Verse     A
||-------------------------------------------------------|
||o------------------------------------------------------|
||-------------------------------------------------------|
||-------------------------------------------------------|
||o-7--5---7-5------------------5---5-7--5---7-5---------|
||-------7-----7-6-5------5-6-7---7--------7-----7-6-5---|  x2

                  B
||-------------------------------------------------------|
||-------------------------------------------------------|
||-------------------------------------------------------|
||--7--5---7-5------------------5---5--------------------|
||-------7-----7-6-5------5-6-7---7---7--5---7-5---------|
||-----------------------------------------7-----7-6-5---|

  Pre-Chorus      C
||----|---|---|---|
||----|---|---|---|
||----|---|---|---|
||--9-|-6-|-5-|-4-|
||--7-|-4-|-3-|-2-|
||----|---|---|---|

  Chorus          D
||--------------------------------------|
||--------------------------------------|
||--------------------------------------|
||----5----5--9h7h5---------------------|
||--7---7-------------2-2-2-2-2-5-5-5---|
||--------------------0-0-0-0-0-3-3-3---|
[ Tab from: http://www.guitaretab.com/c/clutch/90058.html ]
  Outro           E
||--------------------|
||--------------------|
||--------------------|
||--------------------|
||--7-5---7-5---------|
||------7-----7-6-5---|

Order
Riff A x2
Riff B
Riff C
Riff D x8
Riff A x2
Riff B
Riff C
Riff D x8
Riff E x4
Lyrics

Yes, Iíll be a responsible member
of this great and blessíd society.
Iíve come to understand the wrongful nature
of gun ownership in the age of monarchy.
But sometimes itís just so hard
to act like the person you werenít born to be.

Felonious behavior. Countless misdemeanors.
Impersonating an officer of the law.

Bonafide man of action! How you like that?
Bonafide man of action! How you like that?
You canít stop, you canít stop progress.
You cantís stop, you canít stop, no, no, no
You canít stop, you canít stop progress.
You cantís stop, you canít stop, no, no, no.

I understand thereís no victimless crimes.
That being said I feel rather victimized.
And I will seek substantial compensation.
Whether legally, legal-ish, or otherwise.
But sometimes itís such a hassle
to sit patiently outside the open gates of a loaded castle.

Felonious behavior. Countless misdemeanors.
Impersonating an officer of the law.

Bonafide man of action! How you like that?
Bonafide man of action! How you like that?
You canít stop, you canít stop progress.
You cantís stop, you canít stop, no, no, no
You canít stop, you canít stop progress.
You cantís stop, you canít stop, no, no, no. 




| /  slide up
| \  slide down
| h  hammer-on
| p  pull-off
| ~  vibrato
| +  harmonic
| x  Mute note
===============================================================================
Related for You Cant Stop Progress tab