Guitaretab - guitar tabs
Song name
# A B C D E F G H I J K L M N O P Q R S T U V W X Y Z

Clutch - Power Player tab

-------------------------------------------------------------------------------
			     Power Player - Clutch
-------------------------------------------------------------------------------
5.21.07
Tabbed by: Tyler420
Email: Tyler420@gmail.com
Tuning: Standard


  Intro/Verse     A
||---------------------------------------|
||o--------------------------------------|
||---------------------------------------|
||-----------------------------5-5-------|
||o-----5-7------5-7------5-7--5-5-------|
||----7-----0--7------0-7------3-3-------|  x12

                  B
  Pre-Chorus      
||-----------------|
||-----------------|
||-----------------|
||-----------------|
||-7-5-7-5---------|
||---------7-5-3~--|

  Chorus          c 
||------------------------------------|
||------------------------------------|
||------------------------------------|
||------------------------------------|
||-2-2-2-2-2-2-2-2-2-2-2-2-2-2-2-2----|
||-0-0-0-0-0-0-0-0-0-0-0-0-0-0-0-0----|


                  d
||----|
||----|
||----|
||-9--|
||-7--|
||-0--| let ring


                  e
||----------------------|
||----------------------|
||----------------------|
||----------------------|
||---2-2--5-----5-7-----|
||---0-0--3-0-0-3-5b----|



  Solo 
||------------------------------------------|
||--12--12~--14br(12)-14--12--12--12-12~----|
||--12--12~--14br(12)-14--12--12--12-12~----|
||------------------------------------------|
||------------------------------------------|
||------------------------------------------|

||---------------------------------------------|
||-15-15-15-15br-14-12-14-12-14-14br-12-14-12--|
||-15-15-15-15br-14-12-14-12-14-14br-12-14-12--|
||---------------------------------------------|
||---------------------------------------------|
||---------------------------------------------|


||-----------------------------------------------------|
||-12----15--14-12-14-12-14b15-14-12-------------------|
||-14b~------14-12-14-12-14b15-14-12-------------------|
||--------------------------------------/16-16-16~-----|
||-----------------------------------------------------|
||-----------------------------------------------------|


[ Tab from: http://www.guitaretab.com/c/clutch/90065.html ]
||------------------------------------------------------------------------|
||--14-14-12-14-12-14br-12--------------12-12-12-14-12-14-15-14-12--------|
||--14-14-12-14-12-14br-12--------------12-12-12-14-12-14-15-14-12--------|
||---------------------------/16-16-16~-----------------------------------|
||------------------------------------------------------------------------|
||------------------------------------------------------------------------|

||---------------------------------------------------------------|
||--14-14-14-15-14-12-14-12~--14b15-12-14-14-14-12~--------------|
||--14-14-14-15-14-12-14-12~--14b15-12-14-14-14-12~--------------|
||---------------------------------------------------------------|
||---------------------------------------------------------------|
||---------------------------------------------------------------|



Lyrics

Diplomatically, emphatically deny
any prior knowledge shape or kind.
You donít know nothing about a Russian hooker.
Some bloke broke in and straight up took her.
Western European journalists, devious little monkeys,
Theyíre bloody relentless.
Call the consulate, and burn the evidence,
Donít speak another word, just burn the evidence.

Iím not giving you attitude, I just want another drink.
I donít care about the altitude, I just want another drink.

Get your hands off me, you donít know who I am.
Iím a power player, Iím a power player.
Get your hands off me, you donít know who I am.
Iím a power player, Iím a power player.

You can always tell the terrorist by his cologne and the watch on his wrist.
It says Iím the type of man that can kick off anywhere, kick off anywhere.

Iím not giving you attitude, I just want another drink.
I donít care about the altitude, I just want another drink.

Movers, shakers, money makers, deal breakers, and dogs,
In this game youíve got to lose a couple of your pawns.

Iím not giving you attitude, I just want another drink.
I donít care about the altitude, I just want another drink.

Movers, shakers, money makers, deal breakers, and dogs,
In this game youíve got to lose a couple of your pawns.




| /  slide up
| \  slide down
| h  hammer-on
| p  pull-off
| ~  vibrato
| +  harmonic
| x  Mute note
===============================================================================
Related for Power Player tab