Guitaretab - guitar tabs
Song name
# A B C D E F G H I J K L M N O P Q R S T U V W X Y Z

Clutch - Devil And Me tab

-------------------------------------------------------------------------------
			     The Devil & ME - Clutch
-------------------------------------------------------------------------------
5.21.07
Tabbed by: Tyler420
Email: Tyler420@gmail.com
Tuning: Standard


  Intro     A
||----------------------|
||o---------------------|
||--------2--------2----|
||--------2--------2----|
||o---5-3-0----3-5-0----|
||----------------------|  x2

                  B
  Verse
||--------------------------------------------------------------------|
||--------------------------------------------------------------------|
||--------------------------------------------------------------------|
||--------------------------------------------------------------------|
||-----------3---------------3---------------------------------3------|
||--5-5--3-5---5-3--5-5--3-5---5-3--5-5---3-5-5--3-5-5-3-5-5-5---5-3--|

||--------------------------------------------------------------------|
||--------------------------------------------------------------------|
||--------------------------------------------------------------------|
||--------------------------------------------------------------------|
||-----------3----------------------------3--------------------3------|
||--5-5--3-5---5-3--5-5----3-5-5-5-5--3-5---5-3--3-5-5-3-5-5-5---5-3--|


  PreChorus          c
||--------------------------------------------------------------------|---|
||--------------------------------------------------------------------|---|
||--------------------------------------------------------------------|---|
||---------------------------------------5-5--------------------------|---|
||---------3-------5-5-7---------3-------3-3-7---------3-------5-5-7--|-2-|
||--5--5-5---5-5-5-3-3-5--5--5-5---5-5-5-----5--5--5-5---5-5-5-3-3-5--|-0-|


  Chorus                d
||--------------------------------------------------------------|
||--------------------------------------------------------------|
||--------------------------------------------------------------|
||--7-5-7-5-7-5--------------------7-5-7-5-7-5------------------|
||--------------5-3-5-3-5-7-5-3----------------5-3-5-3-5-3------|
||------------------------------5--------------------------5----|

[ Tab from: http://www.guitaretab.com/c/clutch/90069.html ]
  Solo                e
||---------------------------------------------------------------------|
||--------------7-5~-------8-5-7br-5-7-5~-----------5~-----------7-5~--|
||--------8-7-5-7-5~-------8-5-7br-5-7-5~------8b-7-5~-----------7-5~--|
||------------------------------------------------------7-5-7-7-5------|
||--7-7---------------7-7-----------------7-7--------------------------|
||--5-5---------------5-5-----------------5-5--------------------------|


||--------------------8----------------------------------------|
||---------10--10-10--8------------7-5-7-5------------5~-------|
||---------9---9--9------------7b9-7-5-7-5------------5~-------|
||----------------------------------------------7-5-7----7-----|
||----7-7-----------------7-7---------------7-7----------------|
||----5-5-----------------5-5---------------5-5----------------|


||---------------------------------------------|
||---------------------------------------------|
||-----------------5---------------------------|
||---5-7-7-5-7-7-7---7-5----------------3------|
||------------------------3-5-5-3-5-5-5---5-3--|
||---------------------------------------------|


Lyrics

The devil and me had a falling out.
Violation of contract beyond a shadow of a doubt.
Wherever he go, whomever he meet.
He got to cross my house on the other side of the street.

And you know thatís the truth. Now hereís the part that the devil sings while heís
hanging his head in a hard rain:

Where Iím headed, I donít know.
Down this path, we all go.
Grace and luck, blood from stone.
Got nowhere to call my home.

What comes around goes around three-fold or more.
Now you canít get off of that killing floor.

Iím going back to Tennessee, back where I come from.
Gonna head back to Beale Street, Beale Street and Oblivion.

The devil and me, bad blood and beef.
An undisciplined child, a liar and a thief.
Itís a low down shame, we were the best of friends.
But I suppose all good things got to come to an end.

What comes around goes around three-fold or more.
Now you canít get off of that killing floor.

Iím going back to Tennessee, back where I come from.
Gonna head back to Beale Street, Beale Street and Oblivion.
Iím going back to Tennessee, back where I come from.
Gonna head back to Beale Street, Beale Street and Oblivion.

Gotta get off of that killing floor.


| /  slide up
| \  slide down
| h  hammer-on
| p  pull-off
| ~  vibrato
| +  harmonic
| x  Mute note
===============================================================================
Related for Devil And Me tab