Song name
# A B C D E F G H I J K L M N O P Q R S T U V W X Y Z

Clutch - Child Of The City tab

Help us improve GuitareTab! Take a short survey!
-------------------------------------------------------------------------------
			     Child of the City - Clutch
-------------------------------------------------------------------------------
6.1.07
Tabbed by: Tyler420
Email: Tyler420@gmail.com
Tuning: Standard


  Intro         Verse  
||--------------|-----------------------|
||-o------------|-----------------------|
||--------------|-----------------------|
||--------------|-----------------------|
||-o------------|--------3-5-3----------|
||----3-3-3-3-0-|--0-3-5-------5-3-0----|



  Pre-Chorus
||---------------------------------------------|
||-o-------------------------------------------|
||---------------------------------------------|
||-----5-5-5-5-5-5-5-5--3-3-3-3-3-3-3-3--------|
||-o---5-5-5-5-5-5-5-5--3-3-3-3-3-3-3-3--------|
||-----5-5-5-5-5-5-5-5--3-3-3-3-3-3-3-3--------|

  Chorus
||-----------------------------------------------------|
||-o---------------------------------------------------|
||-----------------------------------------------------|
||-------------3----5-3-----------------5-3------------|
||-o---5-5-5-5---5------5-3-5-5-5-5---------5-3--------|
||-----------------------------------3-----------------|


||---------------------------------------------------------|
||-o-------------------------------------------------------|
||---------------------------------------------------------|
||-------------3----5-3---------------------5-3------------|
||-o---5-5-5-5---5------5-3-5-5-5-5-------------5-3--------|
||---------------------------------------3-----------------|


||-----------------|
||-o---------------|
||-----------------|
||-----------------|
||-o---------------|
||----3-3-3-0------|


||-----------------------------------------------------|
||-----------------------------------------------------|
||-----------------------------------------------------|
||-----------------------------------------------------|
||-----------------------------------------------------|
||-----------------------------------------------------|




Lyrics

Child of the city, Mother of the Earth
Baptism by firefly, pinch a parsons purse.

Queen of Cups the Jokers blade is old and dull.
Child of the City
Yet it slices us with the nicest miracles.

Babe in the Wilderness, Father of Creation,
Spinning of the wind, the gathering of nations.

Professor on the Toadstool convene your class.
Babe in the wilderness.
In absentia, please show your hands.
And your feet. Are you touched by a beast?
Wash yourself, live your life. Take the Earth as your wife.

False idol raiser, play the town.
Count up your blessings and melt it down.

Immortal Dominator. Governor of the World.
Sic semper tyrannis. The Fisher and the Pearl.

The bearer of this letter is a charlatan.
Immortal Dominator.
In absentia, please show your hands and your feet
And your feet. Are you touched by a beast?
Wash yourself, live your life. Take the Earth as your wife.

False idol raiser, play the town.
Count up your blessings and melt it down.
All your money now, kid. All your money now, kid.
All your money now, kid. All your money. 




| /  slide up
| \  slide down
| h  hammer-on
| p  pull-off
| ~  vibrato
| +  harmonic
| x  Mute note
===============================================================================
Related for Child Of The City tab