Song name
# A B C D E F G H I J K L M N O P Q R S T U V W X Y Z

Clutch - Opposum Minister tab

I think this sounds very close to it. Let me know what you think.
-------------------------------------------------------------------------------
			    Opposum Minister- Clutch
-------------------------------------------------------------------------------
Tabbed by:Brian
Email:i3baller11@aim.com

Tuning:

e|---------------------------------------------------------------------------------------|
B|---------------------------------------------------------------------------------------|
G|---------------------------------------------------------------------------------------|
D|---------------------------------------------------------------------------------------|
A|----6---------4-----66-------4---66-----------x10--------------------------------------|
E|--6------4h6----6--------4h6---6-------------------------------------------------------|

e|------------------------------------------------------------------------------------|
B|------------------------------------------------------------------------------------|
G|------------------------------------------------------------------------------------|
D|------------------------------------------------------------------------------------|
A|-4---4----4----4------6-----x4------------------------------------------------------|
E|--6----6-----6---6----4-------------------------------------------------------------|

e|---------------------------------------------------------------------------------------|
B|---------------------------------------------------------------------------------------|
G|---------------------------------------------------------------------------------------|
D|---------------------------------------------------------------------------------------|
A|----6---------4-----66-------4---66-----------x10--------------------------------------|
E|--6------4h6----6--------4h6---6-------------------------------------------------------|

e|------------------------------------------|
B|------------------------------------------|
G|------------------------------------------|
D|------------------------------------------|
A|------4--6---4h6------66-6/8----------x4--|
E|-66-4-------------4---44-4/6--------------|
Tap to rate this tab
 
# A B C D E F G H I J K L M N O P Q R S T U V W X Y Z