Guitaretab - guitar tabs
Song name
# A B C D E F G H I J K L M N O P Q R S T U V W X Y Z

Clutch - Mice Gods tab

Tabbed By Blake Tomasch

_____________
Quick Legend |
/  - slide   |
v~ - vibrato |
b  - bend    |
=============

INTRO: also repeats through song

REPEAT 4x

RIFF #1

        Let ring---------|
e|--------------------------------------------|
B|--------------------------------------------|
G|------(8)-----------------------------------|
D|------(8)-----------------------------------|
A|------(6)-----------------4-------4---------|
E|-----------------------------4--6----4--2---|


PRE-CHORUS 

REPEAT 3x

RIFF #2

e|--------------------------------------------------------------------|
B|--------------------------------------------------------------------|
G|--------------------------------------------------------------------|
D|---------------------------4------------------------------7-6-4-----|
A|-----6-4-6-4-6-4-6-4-6-4-6---6-4----6-4-6-4-6-4-6-4-6-4-6-------6-4-|
E|--------------------------------------------------------------------|

PRE-CHORUS (continued) and CHORUS

All of the chords below with parentheses around them, let them ring for a short while.

THE PART BELOW IS ONLY A PORTION OF THE SONG THAT REPEATS

RIFF #3
[ Tab from: http://www.guitaretab.com/c/clutch/92217.html ]
e|---------------------------------------------------------------|
B|---------------------------------------------------------------|
G|--(8)---/(11)-/(6)-6-6-6-6/8-8-(8)-8-8/(11)-/------------------|
D|--(8)---/(11)-/(6)-6-6-6-6/8-8-(8)-8-8/(11)-/------------------|
A|--(6)---/(9)--/(4)-4-4-4-4/6-6-(6)-6-6/(9)--/------------------|
E|---------------------------------------------------------------|

This is also played a bit slower 

SOLO

Wide vibrato used on many of these

e|---------------------------------------------------------------|
B|-----------------7b--------------------------------------------|
G|---------8v~~~~----------6------8p6---8v~~~~~~~~8p6------------|
D|------------------------------------------------------8p6------|
A|---------------------------------------------------------------|
E|---------------------------------------------------------------|


Organ plays some, then play a wide vibrato


e|-----------------------------|
B|-----------7v~~~~~~~---------|
G|-----------------------------|
D|-----------------------------|
A|-----------------------------|
E|-----------------------------|

Play this again after organ finishes

e|-------------------6b-----------------------------------------------|
B|-------------------7b-----------------------------------------------|
G|---------8v~~~~----------6---------8p6---8v~~~~~~~~8p6--------------|
D|---------------------------------------------------------8p6--------|
A|--------------------------------------------------------------------|
E|--------------------------------------------------------------------|


Put in the rest of the riffs and such where they need to be and thatís it!
Related for Mice Gods tab