Guitaretab - guitar tabs
Song name
# A B C D E F G H I J K L M N O P Q R S T U V W X Y Z

Clutch - Never Be Moved tab

-------------------------------------------------------------------------------
			        Never Be Moved - Clutch
-------------------------------------------------------------------------------






9.21.07
Tabbed by: Tyler Eibl
Email: Tyler420@gmail.com

Tuning: Standard


Intro/verse
                    

e|--------------------------|
B|o-------------------------|
G|--------------------------|
D|-------------------9------|
A|o---9p7----7--------------|
E|--------10---10--7--------|
                  

Chorus

e|------------------------------------------------------------|
B|o-----------------------------------------------------------|
G|------------------------------------------------------------|
D|----------11------------------------------------------------|
A|o--9-9/12-9---9-9-12-9---9-9-9-12\11---9-9-12-12-12-9-------|
E|---7-7/10-----7-7-10-7---7-7-7-10\9----7-7-10-10-10-7-------|
                  
Bridge

e|-------------------------------------------------------------------|
B|o--------------------------------------------------9b-9-7-9-7------|
G|---------------------------------------------------9b-9-7-9-7------|
D|---7h9-9-9-9-9-7h9-9-9-9-9-7h9-9-9-7h9-9-9-9-9-7h9-----------------|
A|o------------------------------------------------------------------|
E|-------------------------------------------------------------------|
                  
Solo thing 

e|--------2------------2-------------------------------------|
B|o---3h5----------3h5---------------------------------------|
G|----------2-2/4--------2-2/4------2------------------------|
D|------------------------------2h4---0-0h2--0h2-2h4---------|
A|o--------------------------------------------------2-------|
E|-----------------------------------------------------------|
                  
[ Tab from: http://www.guitaretab.com/c/clutch/92499.html ]
e|--------------------------------------------------------------------------------|
B|o--------------------------------------------(10)(10)--9br-7--10b-10b-10b-10b~--|
G|-----------2-4-4-2-4-4----------2-4-4-2-4-4---10^-10^--9br-7--10b-10b-10b-10b~--|
D|---2h4-4-4--------------2h4-4-4-------------------------------------------------|
A|o-------------------------------------------------------------------------------|
E|--------------------------------------------------------------------------------|
                  

Never Be Moved

I know we came here to get our good times on,
Hold the whole world in our hand and greet the dawn with open arms.
So make a contribution if you have been amused
But before we depart my brothers and sisters I have some heavy news.

Oh how it breaks my heart this photograph.
Several in the ministry practice a fuzzy math.
And some of us wear the robes of the righteous
Are a little more next of kin
To the Sleestak, the wicked one who makes a meal of our sins.

Ainít no telling how much longer but we will never be moved.
Ainít no telling how much longer but we will never be moved.

Woe be the architect of our city, cruel leveler, the hillock strangler.
Bold pusher of the cold bone index
Through the knotted bowels of the old alleyways.
Read the future a false haruspex.
Recall how he coaxed us out of the green plains.
All of us, dumb eyed at the sheer number. So long ago it does not matter.
Woe be architect in his slumber, for the Watcher never sleeps.
And on that day there will be rejoicing and dancing streets.

Ainít no telling how much longer but we will never be moved.
Ainít no telling how much longer but we will never be moved.

Get your evolution on.

Good St. Charles Darwin wrote his gospel down
So keep your eyes turned to the sky and your ears down to the ground.

Get your evolution on.

Ainít no telling how much longer but we will never be moved.
Ainít no telling how much longer but we will never be moved.
Ainít no telling how much longer but we will never be moved.
Ainít no telling how much longer but we will never be moved.
Related for Never Be Moved tab