Song name
# A B C D E F G H I J K L M N O P Q R S T U V W X Y Z

Cmx - Saatana tab

Saatana

Tabbed By Plikk

Akustinen kitara:
Am | G | F | E

Ja melodia siihen päälle:
|--------------------------------------------------|
|--------------------------------------------------|
|-/2---4-5--5/9-7---5-4-5---2-2--2/4\2--1--(1)--/\-|
|-------------------------------------------2---/\-|
|--------------------------------------------------|
|--------------------------------------------------|

|--------------------------------------------------|
|--------------------------------------------------|
|-/2---4-5--5/9-7---5-4-5--4----4------------------|
|-----------------------------7----7-6---6-~~~~\/\-|
|--------------------------------------------------|
|--------------------------------------------------|

Säe 1:
  Am               Em           Dm          F
   Kun myrskytuuli soittaa kalliolla luista kannelta
  Am          Em          Dm             F
   teräksestä sinut taon, raudasta sinut uneksin
  Dm                  A#             F      A      D#
   päivät on työtä ja niin myös yöt, painia kanssa enkelten
  Dm             A#       F     A     D#
   jotka tulevat pimeästä  kutsumatta nauraen

Ja tähän väliin taas tätä royaltia melodiaa
jonka voi ajankuluks soittaa myös tällai:
|-------------------------------------------------|
|-------------------------------------------------|
|-------------------------------------------------|
|-/7---9-10--10/14-12---10-9-10--9-7--7/9-7--6-(6)|
|-----------------------------------------------7-|
|-------------------------------------------------|

(säe 2)
   Koetan käydä puiden rytmiin, hengittää rytmissä eläimen
   koetan avaruuden rytmiin sovittaa kuolevaisuuden
   mutta aamut odottavat, illat viilaavat hampaitaan
   ihmisen kosketus pakenee oma veri kääntyy vastaan

Kertosäe:
  	Am                                G
  	Tekisipä mieleni surffata tähtein välissä luomisen
  	F             E
  	aaltoa pitkää kilvan saatanaa vastaan


Ja se melodia taas ennen välisoittoa:
|------------8--8/12-10---------------------------------|
|--/10----12--------------11-12-10---10-11-9---9-10-8---|
|-------------------------------------------------------|
|-------------------------------------------------------|
|-------------------------------------------------------|
|-------------------------------------------------------|

"Keskiaika" -huiluteema:
|--------------------------------------------|
|--------------------------------------------|
|--------------------------------------------|
|------------------------------7-------------|
|-7--10----9-7-5----7--10-9-10---9-7---------|
|------------------------------------10--7---|

Urku-soolo:
|---------------------------------------------|
|-----10--------------------------------9-10--|
|-9--------------------9-11---10--11-12-------|
|--------10-9---11-12-------------------------|
|---------------------------------------------|
|---------------------------------------------|

|-12----------------------------------|
|----12---------9-10------------------|
|-------12-11--------11-10~-9~-7~-5~--|
|-------------------------------------|
|-------------------------------------|
|-------------------------------------|
Tap to rate this tab
 
# A B C D E F G H I J K L M N O P Q R S T U V W X Y Z