Song name
# A B C D E F G H I J K L M N O P Q R S T U V W X Y Z

Cmx - Silmien Ummistamisesta Nansenin Galvanointiin tab

v=vibraatto

Intro:

Kitara 1

E:-----------------------|
H:-15v--15v-13v-15v-13v--|
G:-----------------------|
D:-0----0-------0--------| <-ei varma tuo vapaa
A:-----------------------|
E:-----------------------|

Kitara 2, fade in:

E:---------------------------------------|
H:---------------------------------------|
G:-15-15-15-14-14-14-14-10-10-10-9-9-9-9-|
D:---------------------------------------|
A:-13-13-13-12-12-12-12-8--8--8--7-7-7-7-|
E:---------------------------------------|

Väliriffi:

E:------------------------------------------------|
H:-20-20-20-20--18-18-18-18--18-18-18-------------|
G:------------------------------------17-17-17-17-|
D:-17-17-17-17--15-15-15-15--15-15-15-------------|
A:------------------------------------15-15-15-15-|
E:------------------------------------------------|

E------------------------|
H:-----------------------|
G:-16-16-16-16--16-16-16-|
D:-----------------------|
A:-14-14-14-14--14-14-14-|
E:-----------------------|

Kerto(?):

E5 D5 H5 H5 H5 Bb5 Bb5 A5 (E5)
Tap to rate this tab
# A B C D E F G H I J K L M N O P Q R S T U V W X Y Z