Song name
# A B C D E F G H I J K L M N O P Q R S T U V W X Y Z

Cmx - Lapsi tab

Song: Lapsi
Album: Johannes Kastaja (EP) (1987)
Writers: A.W. Yrjänä


Main Riff
E |-----------------|
H |-----------------|
G |---7---5-4-5-4---|
D |-0---0---------7-|
A |---------------7-|
E |-----------------|

Chorus
E |------------------------------------------------------------------------|
H |------------------------------------------------------------------------|
G |------------------------------------------------------------------------|
D |-7-7-7-7-7-7-7-7-7-7-7-7-7-7-7-7-10-10-10-10-10-10-10-10-9-9-9-9-9-9-9-9|
A |-5-5-5-5-5-5-5-5-5-5-5-5-5-5-5-5- 8- 8- 8- 8- 8- 8- 8- 8-7-7-7-7-7-7-7-7|
E |------------------------------------------------------------------------|
Tap to rate this tab
# A B C D E F G H I J K L M N O P Q R S T U V W X Y Z