Song name
# A B C D E F G H I J K L M N O P Q R S T U V W X Y Z

Cn Blue - Love In The Rain chords

Highlighted       Show chord diagrams
CN Blue - 사랑은 비를 타고 (Love In the Rain) Guitar Chord

intro :


e |-----1-|---0--|---0--|----0-|------|-----0|---0--|
b |---1---|-----3|-----1|---1--|----0-|---1--|-----3|
G |--0-0--|--2-2-|--2-2-|--0---|---0--|--0-0-|--2-2-|
D |-2-----|-0----|-0----|-2----|--0---|-2----|-0----|
A |0------|0-----|0-----|3-----|-2----|0-----|0-----|
E |-------|------|------|------|3-----|------|------|
     Am7   Asus4   C6     C       G     Am7   Asus4

e |---0--|---1|----0|
b |-----3|--3-|---3-|
G |--2-2-|-0--|--0--|
D |-0----|----|-3---|
A |0-----|3---|3----|
E |------|----|-----|
    Fmaj7 Dm/C G7sus4

Pre-Chorus: Am, G, F Am, G, C Am, G, F Dm, G

Chorus: C, G, Am, F

Pre-Chorus(rock/palm mute): A, G, F, G A, B, C, B A, G, F D, G

Chorus+solo: C, G, Am, F

Pre-Chorus: Am, G, F Am, B, C Am, G, F Dm, G, G#

Chorus: C#, G#, Bb, F#
Tap to rate this tab
 
# A B C D E F G H I J K L M N O P Q R S T U V W X Y Z