Song name
# A B C D E F G H I J K L M N O P Q R S T U V W X Y Z

Cn Blue - Love Light tab

-------------------------------------------------------------------------------
                             Love Light- CN BLUE
-------------------------------------------------------------------------------
Tabbed by: Austin
E-mail: austin.bro@hotmail.com

Tuning: E A D G B e (standard tuning)

Intro/Solo

e|--------------10----/9--------------------------------------------------------------|
B|----------10------------11------------------------/12-------------------------------|
G|-/7--11---------------------11---------------7--------------------------------------|
D|--------------------------------9/10\9----------------------------------------------|
A|------------------------------------------------------------------------------------|
E|---1st BAR--------III ------ 2nd BAR-------IIII----3rd Bar--------------------------|



e|---------9--10--11--12- (12)--------------------------------------------------------|
B|----10------------------------------------------------------------------------------|
G|---------9--10--11--12-(12)---------------------------------------------------------|
D|------------------------------------------------------------------------------------|
A|------------------------------------------------------------------------------------|
E|-----4th Bar------------------------------------------------------------------------|


It's my first time submitting a tab here, so not used to writing with this format.

But basically in regards to rhythm:

(4/4) 1st Bar: 1 beat, 1 beat , 1 beat , 1 beat  (each note holds for 1 beat)
2nd Bar: 1 beat, 1 beat, 1 beat, 1/4 beat, 1/4 beat, 1/2 beat (each note holds for that 
respective beat in the second bar)
3rd Bar: 2 beats, 2 beats
4th Bar: 1 beat, 1/2 beat, 1/2 beat, 1/2 beat, 1.5 beats (hold the last note for 1.5 beats)

Rest of the song:

D Major Scale

Chord Progression: D (x57775) [4 beats]  I F# (244322) [4 beats] I G (355433) [4 Beats] 
I A (577655) [2 Beats] Simple Riff [2 beats]

e|-----------------------------------------------------------------------------|
B|-----------------------------------------------------------------------------|
G|-----------------------------------------------------------------------------|
D|-----------------------------------------------------------------------------|
A|-----------------------------------------------------------------------------|
E|--5--3-2-0-------------------------------------------------------------------|I

Rhythm for the riff: 1/2 beat, 1/2 beat, 1/2 beat, 1/2 beat

Okay, strumming technique for the chord progression:

Use palm mute slightly
Hit single root (base note) of chord for 1/2 beat
Strum last four-five strings (melody party) Down for 1/4 beat then Up for 1/4 beat
That is 1 beat of the chord, just repeat that for the rest of beats etc


Finally, songs tags with D 6/9 Chord (1012x111212)

Enjoy!

************************************

| /   slide up
| \   slide down
| h   hammer-on
| p   pull-off
| ~   vibrato
| +   harmonic
| x   Mute note
| b   Bend
| pb  Pre-bend
| br  Bend release
| pbr Pre-bend release
| brb Bend release bend

************************************
Tap to rate this tab
 
# A B C D E F G H I J K L M N O P Q R S T U V W X Y Z