Song name
# A B C D E F G H I J K L M N O P Q R S T U V W X Y Z

Cn Blue - Truth tab

CNBLUE - Truth
Standard Tuning

** Timestamps are according to the music video http://www.youtube.com/watch?v=_e42r1pgFOY **

p = Palm Mute

Intro
e|------------------------------------------------------|
B|------------------------------------------------------|
G|-xx--/12---10---8---5-5----xx--10-11-12---------------|
D|-xx------------------------xx-------------------------|
A|-xx--/10----8---6---3-3----xx---8--9-10---------------|
E|------------------------------------------------------|

e|---------------------------|
B|---------------------------|
G|-xx--/12---10---8---5-5----|
D|-xx------------------------|
A|-xx--/10----8---6---3-3----|
E|---------------------------|

Verse (0:09)
e|-----------------------------------|
B|-----------------------------------|
G|---------5-----------------5~------|
D|---6--5--5----777----6--5--5~------|     X 2
A|---6--5--3----777----6--5--3~------|
E|---4--3-------555----4--3----------|

(0:25)
e|--------------------------------------------|
B|--------------------------------------------|
G|---------5-----------------5~----xx--8-12---|
D|---6--5--5----777----6--5--5~---------------|
A|---6--5--3----777----6--5--3~----xx--6-10---|
E|---4--3-------555----4--3-------------------|

(0:33)
e|------------------------------------------------|
B|------------------------------------------------|
G|---------5--------------------------------------|
D|---6--5--5----777----3--------5555555-----------|     
A|---6--5--3----777----3--------5555555-----------|
E|---4--3-------555----1--------3333333-----------|
                                ppppppp   

Chorus (0:41)
e|------------------------------------------------------------|
B|------------------------------------------------------------|
G|--55x5--------33x3---8-7----55x5----------33x3---88-7-------|
D|--55x5--33x3--33x3---8-7----55x5--33x3----33x3---88-7-------| X4
A|--33x3--33x3--11x1---6-5----33x3--33x3----11x1---66-5-------|
E|--------11x1----------------------11x1----------------------|

(1:13)
e|---------------------|
B|-----88--9\\---------|
G|-----88--8\\---------|
D|---------------------|
A|---------------------|
E|---------------------|

Verse (1:17)
e|-----------------------------------|
B|-----------------------------------|
G|---------5-----------------5~------|
D|---6--5--5----777----6--5--5~------| X 2
A|---6--5--3----777----6--5--3~------|
E|---4--3-------555----4--3----------|


(1:33)
e|--------------------------------------------|
B|--------------------------------------------|
G|---------5-----------------5~----xx--8--12--|
D|---6--5--5----777----6--5--5~---------------|
A|---6--5--3----777----6--5--3~----xx--6--10--|
E|---4--3-------555----4--3-------------------|

e|-----------------------------------------------|
B|-----------------------------------------------|
G|---------5-------------------------------------| 
D|---6--5--5----777----3--------555555555--------|     
A|---6--5--3----777----3--------555555555--------|
E|---4--3-------555----1--------333333333--------|
                                pppppp   

Chorus (1:50)
e|-------------------------------------------------------------|
B|-------------------------------------------------------------|
G|--55x5--------33x3---8-7----55x5----------33x3---88-7--------|
D|--55x5--33x3--33x3---8-7----55x5--33x3----33x3---88-7--------| X4
A|--33x3--33x3--11x1---6-5----33x3--33x3----11x1---66-5--------|
E|--------11x1----------------------11x1-----------------------|

Guitar Solo (2:23)
e|----------------------------------------------------------------------------------------|
B|-----------13-11------------------------------------------------------------------------|
G|---10b12---------12-11p10p8-------------------------------------------------------------|
D|-----------------------------10-8---------8---------------------------------------------|
A|----------------------------------10-8/10---10p8\6-6/8-6--------6-----------------------|
E|----------------------------------------------------------8-6-8---8-6-8b9r8b9r8\\\\\----|

Bridge (2:31)
e|----------------------------------------------------------------------------------------|
B|----------------------------------------------------------------------------------------|
G|-------------------5-------------------------------------7------------------------------|
D|--6--------5-------5--------7---------6--------3---------7---------------------5--------|
A|--6--------5-------3--------7---------6--------3---------5---------------------5--------|
E|--4--------3----------------5---------4--------1-------------------------------3--------|

Chorus (2:59)
e|------------------------------------------------------------|
B|------------------------------------------------------------|
G|--55x5--------33x3---8-7----55x5----------33x3---88-7-------|
D|--55x5--33x3--33x3---8-7----55x5--33x3----33x3---88-7-------|   X4
A|--33x3--33x3--11x1---6-5----33x3--33x3----11x1---66-5-------|
E|--------11x1----------------------11x1----------------------|

Outro (3:32)
e|-------------------------------------|
B|-------------------------------------|
G|---1212--13\-------------8--7\-------|
D|-----------------88-8----8--7\-------|
A|---1010--11\-----88-8----6--5\-------|
E|-----------------66-6----------------|
Tap to rate this tab
 
# A B C D E F G H I J K L M N O P Q R S T U V W X Y Z