Song name
# A B C D E F G H I J K L M N O P Q R S T U V W X Y Z

Coachwhips - Extinguish Me tab

"Extinguish Me" by Coachwhips
from Bangers vs. Fuckers
Tabbed by Mr. Cancelled (dopasaurusrex@gmail.com)
http://www.myspace.com/coachwhipsvsfuckers

Standard Tuning (e,B,G,D,A,E)

Just a few things before I begin this. I'm 90% sure that John Dwyer doesn't play in
standard tuning, and due to the amount of distortion in every Coachwhips song, this isn't
going to be totally accurate. Finally, you can play the verse as just power chords, but I
personally think they sound better as barred chords. For reasons of simplicity though, I'll
be writing down the power chords.

Intro/Pre-verse
e------------------------------------|
b------------------------------------|
g-------------------------3-3-3/5\3--|
d-5-5-5-5-5-5-3-3-5-5-5-5------------|
a-------------------------1-1-1/3\1--|
e-3-3-3-3-3-3-1-1-3-3-3-3------------|x4

The time signature changes to 6/4 for the verse...

Verse
e------------------------------------|
b------------------------------------|
g-----------------3-3----------------|
d-5-5-5-5-5-5-5-5-3-3-3-3------------|
a-5-5-5-5-5-5-5-5-1-1-3-3------------|
e-3-3-3-3-3-3-3-3-----1-1------------|x4

...and back to 4/4 for the chorus.

Chorus
e------------------------------------|
b------------------------------------|
g---------3-3------------------------|
d-5-5-----3-3-----3-3-----5-5-3-3----|
a-5-5-----1-1-----3-3-----5-5-3-3----|
e-3-3-------------1-1-----3-3-1-1----|x2

The song structure is just Pre-verse, Verse, Chorus. Repeat this three times and you're 
Enjoy!
Tap to rate this tab
 
# A B C D E F G H I J K L M N O P Q R S T U V W X Y Z