Coachwhips - I Drank What tab

"I Drank What?" by Coachwhips
from Bangers vs. Fuckers
Tabbed by Mr. Cancelled (dopasaurusrex@gmail.com)


Standard Tuning (e,B,G,D,A,E)

Just a few things before I begin this. I'm 90% sure that John Dwyer doesn't play in
standard tuning, and due to the amount of distortion in every Coachwhips song, this isn't
going to be totally accurate. Finally, you can play the verse as just power chords, but I
personally think they sound better as barred chords. For reasons of simplicity though, I'll
be writing down the power chords.

Intro
e------------------------------------|
b-4---4-4-4-4-4-4-4-4-4-4-4-4-4-4----|
g-6^--6^6^6^6^6^6^6^6^6^6^6^6^6^6^---|
d------------------------------------|
a------------------------------------|
e------------------------------------|
Bend the g string about 1/4 of the way up, and keep it there.

Verse
e------------------------------------|
b------------------------------------|
g------------------------------------|
d-6-6-6-----------6-6-6--------------|
a-6-6-6-----------6-6-6--------------|
e-4-4-4-----------4-4-4--------------|x2

Break 1
e------------------------------------|
b------------------------------------|
g------------------------------------|
d-3-3-666-3--3--3-6-6----------------|
a-3-3-666-3--3--3-6-6----------------|
e-1-1-444-1--1--1-4-4----------------|x2

e------------------------------------|
b------------------------------------|
g------------------------------------|
d-8-8-666-8--8--8-6-6----------------|
a-8-8-666-8--8--8-6-6----------------|
e-6-6-444-6--6--6-4-4----------------|

e------------------------------------|
b------------------------------------|
g------------------------------------|
d-3-3-666-3--3--3-6-6----------------|
a-3-3-666-3--3--3-6-6----------------|
e-1-1-444-1--1--1-4-4----------------|

Break 2
e------------------------------------|
b------------------------------------|
g------------------------------------|
d------------------------------------|
a------------------------------------|
e-13-13-161616-13--13--13-16-16------|x2
  .  .  . . .  .   .   .  .  .

e------------------------------------|
b------------------------------------|
g------------------------------------|
d------------------------------------|
a------------------------------------|
e-18-18-161616-18--18--18-16-16------|
  .  .  . . .  .   .   .  .  .

e------------------------------------|
b------------------------------------|
g------------------------------------|
d------------------------------------|
a------------------------------------|
e-13-13-161616-13--13--13-16-16------|
  .  .  . . .  .   .   .  .  .

Song structe:
Intro
Verse
Break 1
Verse
Break 1
Break 2 x2
Break 1
Verse
Break 1

End on
e------------------------------------|
b------------------------------------|
g------------------------------------|
d-6----------------------------------|
a-6----------------------------------|
e-4----------------------------------|
Tap to rate this tab
 
# A B C D E F G H I J K L M N O P Q R S T U V W X Y Z