Song name
# A B C D E F G H I J K L M N O P Q R S T U V W X Y Z

Coachwhips - Body And Brains tab

"Body and Brains" by Coachwhips
from Peanut Butter and Jelly Live at the Ginger Minge
Tabbed by Mr. Cancelled (dopasaurusrex@gmail.com)

Standard Tuning (e,B,G,D,A,E)

Just a few things before I begin this. I'm 90% sure that John Dwyer doesn't play in
standard tuning, and due to the amount of distortion in every Coachwhips song, this isn't
going to be totally accurate. Finally, you can play the verse as just power chords, but I
personally think they sound better as barred chords. For reasons of simplicity though, I'll
be writing down the power chords.

Intro
e------------------------------------|
b-8-8-7-7-6-6-7-7-8-8-7-7-6-6-7-7----|
g------------------------------------|
d------------------------------------|
a------------------------------------|
e------------------------------------|

Break
e------------------------------------|
b------------------------------------|
g------------------------------------|
d-5-5-4-4-3-3-4-4-5-5-4-4-3-3-4-4----|
a-5-5-4-4-3-3-4-4-5-5-4-4-3-3-4-4----|
e-3-3-2-2-1-1-2-2-3-3-2-2-1-1-2-2----|x2

Verse
e------------------------------------|
b------------------------------------|
g-----------------3-3-3-3-3-3-3-3----|
d-5-5-5-5-5-5-5-5-3-3-3-3-3-3-3-3----|
a-5-5-5-5-5-5-5-5-1-1-1-1-1-1-1-1----|
e-3-3-3-3-3-3-3-3--------------------|

e------------------------------------|
b------------------------------------|
g------------------------------------|
d-3-3-3-3-3-3-3-3-5-5-5-5-5-5-5-5----|
a-3-3-3-3-3-3-3-3-5-5-5-5-5-5-5-5----|
e-1-1-1-1-1-1-1-1-3-3-3-3-3-3-3-3----|

e------------------------------------|
b------------------------------------|
g-----------------3-3-3-3-3-3-3-3----|
d-5-5-5-5-5-5-5-5-3-3-3-3-3-3-3-3----|
a-5-5-5-5-5-5-5-5-1-1-1-1-1-1-1-1----|
e-3-3-3-3-3-3-3-3--------------------|

e------------------------------------|
b------------------------------------|
g------------------------------------|
d-3-3-3-3-3-3-3-3-5-5----------------|
a-3-3-3-3-3-3-3-3-5-5----------------|
e-1-1-1-1-1-1-1-1-3-3----------------|

Solo
e-3-3-3-3-2-2-2-2-1-1-1-1-2-2-2-2----|
b-0-0-0-0-0-0-0-0-0-0-0-0-0-0-0-0----|
g------------------------------------|
d------------------------------------|
a------------------------------------|
e------------------------------------|x2

e-101010109-9-9-9-8-8-8-8-10101010---|
b-0-0-0-0-0-0-0-0-0-0-0-0-0-0-0-0----|
g------------------------------------|
d------------------------------------|
a------------------------------------|
e------------------------------------|x2

Song structure:
Intro
Break
Verse
Break
Verse
Break
Solo
Break
Verse
Break
Solo x2

End on
e------------------------------------|
b------------------------------------|
g------------------------------------|
d-5----------------------------------|
a-5----------------------------------|
e-3----------------------------------|
Tap to rate this tab
 
# A B C D E F G H I J K L M N O P Q R S T U V W X Y Z