Song name
# A B C D E F G H I J K L M N O P Q R S T U V W X Y Z

Coakley Style - To Dear Ally tab

Coakley Style - To Dear Ally
Tabbed By: Louis
EMail: loserz1
Album:  Life is not Fun

     INTRO..
|---------------------------------------------------------|
|---------3------3-------3--------3-------3-------3-------|
|--------0--0---0--0----0--0-----0--0----0--0----0--0-----|PLAY 2X'S
|------3------2-------0-----------------------------------|
|-------------------------------3-------2-------0---------|
|---------------------------------------------------------|
       Lyrics: you never cared any way......        

     RIFF #1..
|------------------------------------|
|------------------------------------|
|---------4-4---3-3------------------| 
|---5-5---4-4---3-3---3-3------------|PLAY 3X'S then switch over to riff 2  
|---5-5---2-2---1-1---3-3------------|
|---3-3---------------1-1------------|


     RIFF #2..
|------------------------------------|
|------------------------------------|
|-9-9---------------3-3--------------|
|-9-9---7-7---5-5---3-3--------------|PLAY 3X'S then to solo
|-7-7---7-7---5-5---1-1--------------|
|-------5-5---3-3--------------------|


     SOLO..    C7                           F7
|------------------------------|---------------------------|
|------------------------------|---------------------------|
|------------------------------|---------------------------|
|------------------------------|-------------10-12-13------|
|-------------------10---------|--10-12-13----8------------|
|---10---13-12---------10-13-12|---8-----------------------|


     CLOSING..    C              D
|---------------------------2------2-----------------------|
|-------1------3----1-----3-----------3--------------------|
|--------0----0--------------0-----2-----------------------|
|---------------------2------------------------------------|
|---------3--1---------3-----------------------------------|
|----------------------------------------------------------|

Thats About it its 100% Correct because i got it out of there tab book
i got tired of seeing it wrong on every tab site so i took it out of the 
book so have fun.
Tap to rate this tab
 
# A B C D E F G H I J K L M N O P Q R S T U V W X Y Z