Song name
# A B C D E F G H I J K L M N O P Q R S T U V W X Y Z

Coal Chamber - High Speed tab

Guitar1: 
Bb, C 

Guitar2: 
e|-6-6-5-5-3-3--------8-8-6-6-5-5-3--
b|---------------1-1----------------- 
g|-----------------------------------
d|----------------------------------- 
a|----------------------------------- 
e|----------------------------------- 


e|-------------------------------------
b|-3---3--3----------------------------
g|---4---2--0-------------------------- 
d|-------------2-3-2------------------- 
a|--------------------3-2-------------- 
e|--------------------------3---------- 

Verse: 
Bb, G repeat over and over until chorus 
e| 
b|-3-3-3--3-3-3--3-3-3----------------------
g|-4-4-4--2-2-2--0-0-0----------------------
d|-------------------------2-3-2------------ 
a|--------------------------------3-2------- 
e|---------------------------------------3-- 


Chorus: 
Bb, C, 
Outro: 
Bb, C repeated over and over 
Tap to rate this tab
# A B C D E F G H I J K L M N O P Q R S T U V W X Y Z