Song name
# A B C D E F G H I J K L M N O P Q R S T U V W X Y Z

Coal Chamber - Wishes tab

             SONG: Wishes
             BAND: Coal Chamber
            ALBUM: Heavy Metal 2000
   TRANSCRIBED BY: Joe Husak (joe@13ways.net)
             DATE: 1-15-01


        TUNING: (LOWEST TO HIGHEST) A#-F-A#-D#-G-C
C |---------------
G |---------------
D#|---------------
A#|---------------
F |--(1-1--1-1)--2
A#|--(1-1--1-1)--2


C |----------------------------------------------------------
G |----------------------------------------------------------
D#|----------------------------------------------------------
A#|--(0-0--0-0)--1-(0-0--0-0)--1-(0-0--0-0)--1-(0-0-0--0-0-0)
F |--(0-0--0-0)--1-(0-0--0-0)--1-(0-0--0-0)--1-(0-0-0--0-0-0)
A#|--(0-0--0-0)--1-(0-0--0-0)--1-(0-0--0-0)--1-(0-0-0--0-0-0)


C |------------
G |------------
D#|--8--9--10--
A#|--8--9--10--
F |--6--7--8---
A#|--6--7--8---

C |--
G |--
D#|--
A#|--5-5--5-5--5-5-2
F |--5-5--5-5--5-5-2
A#|--5-5--5-5--5-5-2
Tap to rate this tab
 
# A B C D E F G H I J K L M N O P Q R S T U V W X Y Z