Song name
# A B C D E F G H I J K L M N O P Q R S T U V W X Y Z

Coal Chamber - Sway tab

COAL CHAMBER
SWAY
OFF THE DEBUT ALBUM COAL CHAMBER (1997)
TRANSCRIBED BY CALUM FAIRWEATHER
www.youtube.com/calumfmetal
www.bebo.com/CALUM_FAIRWEATHER
www.myspace.com/blackinfernoband
www.facebook.com/calum.fairweather
www.facebook.com/blackinfernoband

TUNING: DROP B (B-F#-B-E-G#-C#)

INTRO RIFF
let ring
GUITAR 1
C#----------------------------|
G#---3-----3-----3-----3------|
E 6-----6-----6-----6---------|
B ----------------------------|
F#----------------------------|
B ----------------------------| PLAY 3 TIMES

RIFF 1
BOTH GUITARS
C#----------------------------|
G#----------------------------|
E ----------------------------| PLAY 8 TIMES
B 3---0---3---0---3--4--------|
F#3---0---3---0---3--4--------|
B 3---0---3---0---3--4--------|

"BURN!!!!!!"
PLAY RIFF 1 3 TIMES

BOTH GUITARS

4TH TIME PLAY THIS
C#----------------------------|
G#----------------------------|
E ----------------------------|
B 3---0---3------1--1---------|
F#3---0---3------1--1---------|
B 3---0---3------1--1---------|
               P.M...

PLAY RIFF 1 4 TIMES

VERSE RIFF (RIFF 2)
BOTH GUITARS
C#----------------------------|
G#----------------------------|
E ----------------------------|     PLAY 4 TIMES
B ----------------------------|
F#----------------------------|
B 0-1--0-1--0-1--0-1--0-1-1---|
  P.M.........................

GUITAR 1 PLAYS RIFF 2 4 TIMES

GUITAR 2 PLAYS INRO RIFF 2 TIMES

CHORUS RIFF (RIFF 3)
BOTH GUITARS
GUITAR 2 PLAYS THIS
C#---------------------|
G#---------------------|
E ---------------------|   8X
B 0----1---0----0-0----|
F#0----1---0----0-0----|
B 0----1---0----0-0----|

GUITAR 1
C#-------------|
G#---3-----3---|
E 6-----6------|
B -------------|
F#-------------|
B -------------|

VERSE RIFF (RIFF 2)
BOTH GUITARS
C#----------------------------|
G#----------------------------|
E ----------------------------|     PLAY 4 TIMES
B ----------------------------|
F#----------------------------|
B 0-1--0-1--0-1--0-1--0-1-1---|
  P.M.........................

GUITAR 1 PLAYS RIFF 2 4 TIMES

GUITAR 2 PLAYS INTRO RIFF 2 TIMES

CHORUS RIFF (RIFF 3) 8 TIMES

GUITAR 1
C#-------------|
G#---3-----3---|
E 6-----6------|
B -------------|
F#-------------|
B -------------|

MIDDLE SECTION (RIFF 2)
BOTH GUITARS
C#----------------------------|
G#----------------------------|
E ----------------------------|     PLAY 4 TIMES
B ----------------------------|
F#----------------------------|
B 0-1--0-1--0-1--0-1--0-1-1---|
  P.M.........................

MIDDLE SECTION (RIFF 4)
BOTH GUITARS
C#----------------------------|
G#----------------------------|
E ----------------------------|     PLAY 4 TIMES
B ------------7-----8-----7---|
F#----------------------------|
B 8-----7---------------------|

C#------------------------------------|
G#------------------------------------|
E ------------------------------------|   PLAY 4 TIMES
B -------------7-7-7-7-8-8-7-7-7-7----|
F#------------------------------------|
B 8-8-8-8--7-7------------------------|

RIFF 5 (GUITAR 1)

C#------------------------------------|
G#------------------------------------|
E ------------------------------------|
B ------------------------------------|
F#------------------------------------|
B 7-7-7-7-7-7-7-7-7-7-7-7-7-7-7-7-----|

C#------------------------------------------------|
G#------------------------------------------------|
E ------------------------------------------------|
B ------------------------------------------------|
F#------------------------------------------------|
B 10-10-10-10-10-10-10-10-10-10-10-10-10-10-10-10-|

C#------------------------------------|
G#------------------------------------|
E ------------------------------------|
B ------------------------------------|
F#------------------------------------|
B 7-7-7-7-7-7-7-7-7-7-7-7-7-7-7-7-----|

C#------------------------------------|
G#------------------------------------|
E ------------------------------------|
B ------------------------------------|
F#------------------------------------|
B 1-1-1-1-1-1-10-10-10-10-5-5-7-7-7-7-|

C#------------------------------------|
G#------------------------------------|
E ------------------------------------|
B ------------------------------------|
F#------------------------------------|
B 7-7-7-7-7-7-7-7-7-7-7-7-7-7-7-7-----|

C#------------------------------------------------|
G#------------------------------------------------|
E ------------------------------------------------|
B ------------------------------------------------|
F#------------------------------------------------|
B 10-10-10-10-10-10-10-10-10-10-10-10-10-10-10-10-|

C#------------------------------------|
G#------------------------------------|
E ------------------------------------|
B --------------------------------1---|
F#--------------------------------1---|
B 7-7-7-7-7-7-7-7-7-7-7-7-7-7-7-7-1---|

GUITAR 2

C#------------------------------------|
G#------------------------------------|
E ------------------------------------|
B 7--10--7--1--10--5-7--7--10--7--1---|
F#7--10--7--1--10--5-7--7--10--7--1---|
B 7--10--7--1--10--5-7--7--10--7--1---|
VERSE RIFF (RIFF 2)
BOTH GUITARS
C#----------------------------|
G#----------------------------|
E ----------------------------|     PLAY 4 TIMES
B ----------------------------|
F#----------------------------|
B 0-1--0-1--0-1--0-1--0-1-1---|
  P.M.........................

GUITAR 1 PLAYS RIFF 2 4 TIMES

GUITAR 2 PLAYS INTRO RIFF 2 TIMES

CHORUS RIFF (RIFF 3) 8 TIMES

PLAY RIFF 1 8 TIMES

PLAY RIFF 1B 8X BOTH GUITARS
C#----------------------------|
G#----------------------------|
E ----------------------------| PLAY 8 TIMES
B ----------------------------|
F#----------------------------|
B 3---0---3---0---3--4--------|

AND THAT'S ALL THE RIFFS

THIS MY FIRST TAB, PLEASE RATE/COMMENT AND GIVE FEEDBACK TO METALMUSICFAN@HOTMAIL.COM
Tap to rate this tab
 
# A B C D E F G H I J K L M N O P Q R S T U V W X Y Z