Guitaretab - guitar tabs
Song name
# A B C D E F G H I J K L M N O P Q R S T U V W X Y Z

Coal Chamber - Unspoiled tab

name=Paul Wittek
band=Coal Chamber
song=Unspoiled
Album: S/T
Track #: 4
All songs  respective artists and record labels
----------------------------------------------------------------------
Tuning: Drop-A (low to high: A E A D G B)
Try to string your guitar like Meegs' (low to high: .070. .056, .046,
.038, .028, .020) to get the closest sound. If not, I recommend at
least a .060

Tempo= 98

key:
p.m.= palm mute
{-T-}= triplet
<#>= harmonic
[#]= artificial or pinch harmonic 
     (indicated above bar by a.h. or p.h.)
(#)= ghost note
/= slide up
\= slide down
b= bend
r= release
h= hammer-on
p= pull-off
~= vibrato
t= vibrato w/ trem. bar
T= tap
x= muted note or rake
x~= strum strings behind nut
X= pick scrape
%= play last bar
<=fade in
||*= repeat (if # is not indicated above bar,
             only play it twice)
|#]= time signature

Intro
  gtr. 1
  Gtr. 2 plays Fig. 1 second time
||-------------------------|-------------------------||
||----0*-------------------|-------------------------||
||*---9---------------9----|----9---------------9---*||
||*------------------------|------------------------*||
||--7--------------7-------|--7--------------7-------||
||--------------8----------|--------------8----------||
       *play second time only
Fig. 1
 gtr. 2
|---------------------------|-------------------------|
|---------------------------|-------------------------|
|--7/9-9-9-9-9-9------9--9--|--7/9-9-9-9-9-9----9--9--|
|---------------------------|-------------------------|
|--5/7-7-7-7-7-7------7--7--|--5/7-7-7-7-7-7----7--7--|
|--------------8------8--8--|--------------8----8-----|

Rhy. Fig. 1      end Rhy. Fig. 1 Rhy. Fig. 1A
gtrs. 1 & 2             (play 7x)             end Rhy. Fig. 1A
||-----------------------------||------------------------------|
||-----------------------------||------------------------------|
||*---------------------------*||------------------------------|
||*---------------------------*||------------------------------|
||--0--3-1-0--0-3--0-2--2-3-1--||--0--3-1-0--0-3--0-2--2-3-1p0-|
||--0--3-1-0--0-3--0-2--2-3-1--||--0--3-1-0--0-3--0-2--2-3-1p0-|

1st Verse
 Fig. 2
|--0----------------|-------------------|------|
|--2----------------|-------------------|------|
|-------------------|-------------------|------|
|-------------------|----------2--------|-(2)--|
|-------------------|-------------------|------|
|-------------------|-------------------|------|
                end Fig. 2
 gtr. 1         (fade out)
|------------------------|
|------------------------|
|------------------------|
|-(2)--------------------|
|------------------------|
|------------------------|
|Rhy. Fig. 2 (gtr. 2)  end Rhy. Fig. 2
|----------0-------0-----|---|---|---|
|-------5-------5--------|---|---|---|
|------------------------|-%-|-%-|-%-|
|------------------------|-%-|-%-|-%-|
|------------------------|---|---|---|
|--2------------------2--|---|---|---|

gtrs. 1 & 2 play Rhy. Figs. 1 and 1A

2nd Verse
gtr. 1 plays Fig. 2
gtr. 2 plays Rhy. Fig. 2

1st Pre-Chorus
Rhy. Fig. 3       end Rhy. Fig. 3
                        (play 8x)   *bounce pick on string
||-----------------------------||--4*4*4*4*4*4*4*4*|
||-----------------------------||------------------|
||*-7/9-9-9-9-9-9----9-9-9-9-9*||2]----------------|
||*---------------------------*||4]----------------|
||--5/7-7-7-7-7-7----7--7--7-7-||------------------|
||--------------8----8---------||------------------|

1st Chorus
gtrs. 1 & 2 play Rhy. Fig. 1 seven times
gtrs. 1 & 2 play Rhy. Fig. 1A

3rd Verse
gtr. 1 plays Fig. 2
gtr. 2 plays Rhy. Fig 2

2nd Pre-chorus
                        (play 8x)          *tap pick over pickups
||-----------------------------||--------------|
||-----------------------------||--------------|
||*-7/9-9-9-9-9-9----9-9-9-9-9*||2]------------|
||*---------------------------*||4]------27*---|
||--5/7-7-7-7-7-7----7--7--7-7-||--------------|
||--------------8----8---------||--------------|

2nd Chorus
gtrs. 1 & 2 play Rhy. Fig. 1 seven times
gtrs. 1 & 2 play Rhy. Fig. 1A

            *w/ clean tone from here on
  p.m.--           ^1/2
|----------0*0-------------||
|--------------------------||
|--------------------------||
|--------------------------||
|--0--1---------7----------||
|--0--1-----------8b-------||

[ Tab from: http://www.guitaretab.com/c/coal-chamber/27954.html ]
Related for Unspoiled tab