Song name
# A B C D E F G H I J K L M N O P Q R S T U V W X Y Z

Coal Chamber - Something Told Me tab

Although Coal Chamber uses seven-string guitars, you can play this song by simply 
your guitar to drop A, like this:


"m" is palm mute
"=" is hold note
"*" is artificial harmonics

== Riff ==

 for the first part
 of the riff, put
 more emphasis on
 the E and D string
 than the small A

b|----------------|
G|----------------|
D|7/8-------------|
A|5/6-0---0-0--0--|
E|5/6-0---0-0--0--|
A|----0---0-0--0--|
      m   m m  m

== Riff Part 2 ==

b|----------------|
G|----------------|
D|7/8-------------|
A|5/6-0---5---3---|
E|5/6-0---5---3---|
A|----0---5---3---|
      m

== Verse ==

this is a slide
  VVV
b|--------------------------------|
G|--------------------------------|
D|767-----------------------------|
A|545-50-50-50-50-50-50-50-50-5===|
E|545-50-50-50-50-50-50-50-50-5===|
A|----50-50-50-50-50-50-50-50-5===|
      mm mm mm mm mm mm mm mm

== Bridge ==

b|--------------------------------|
G|--------------------------------|
D|--------------------------------|
A|3-3-----3-3-----3-3-----34--34--|
E|3-3-----3-3-----3-3-----34--34--|
A|3-3-----3-3-----3-3-----34--34--|
  Something...         ...Don't give it to me...

== Bridgepart 1 ==

b|--------------------------------|
G|--------------------------------|
D|--------------------------------|
A|3-3-55553-3-55553-3-555534--34--|
E|3-3-55553-3-55553-3-555534--34--|
A|3-3-----3-3-----3-3-----34--34--|
      ****    ****    ****

STRUCTURE OF SONG:

RIFF (x7)
RIFF PART 2 (x1)
VERSE (x4)
RIFF (x4)
VERSE (x4)
BRIDGE (x4)
BRIDGEPART 1 (x1)
VERSE (x4)
BRIDGE (x4)
BRIDGE(Palm Muted) (x2)
"DRIVING ME CRAZY" PART (x4) - I don't know this
RIFF (x7)
RIFF PART 2 (x1)
VERSE (MODIFIED) (x1)
BRIDGE (MODIFIED) (x1)
BRIDGE (x4)
BRIDGE (MODIFIED) (x1)
Tap to rate this tab
 
# A B C D E F G H I J K L M N O P Q R S T U V W X Y Z