Song name
# A B C D E F G H I J K L M N O P Q R S T U V W X Y Z

Coal Chamber - My Frustration tab

Intro - Riff1
E-------------------------------------------
B-------------------------------------------
G-------------------------------------------
D-2-3-4-2-3-4---------------1-2-3-1-2-3-----
A-2-3-4-2-3-4-play 4 times--1-2-3-1-2-3-----
E-2-3-4-2-3-4---------------1-2-3-1-2-3-----

Verse
E-----------------------------------------------------------
B-----------------------------------------------------------
G-----------------------------------------------------------
D-2-2--2-2--2-2--2-2--3-3-3-0--1-1--1-1--1-1--1-1--2-2-2-0--
A-2-2--2-2--2-2--2-2--3-3-3-0--1-1--1-1--1-1--1-1--2-2-2-0--
E-2-2--2-2--2-2--2-2--3-3-3-0--1-1--1-1--1-1--1-1--2-2-2-0--

Chorus, "a step away"
E-------------0------------------
B-------------0------------------
G-------------0------------------
D-1-2-3-1-2-0----1-1-1--2-2-3-3--
A-1-2-3-1-2-0----1-1-1--2-2-3-3--
E-1-2-3-1-2-0----1-1-1--2-2-3-3--

Then
E-----------------------------------
B-----------------------------------
G-----------------3~~---------------
D-2~~~~--1~~~-----------------------
A-2~~~~--1~~~-----------------------
E-2~~~~--1~~~-----------------------

Riff2
E-----------------------------------------------------------
B-----------------------------------------------------------
G-----------------------------------------------------------
D---------------------------repeat---2-3-2--1-2-3--2-3-2--1-
A------------------------------------2-3-2--1-2-3--2-3-2--1-
E-2-3-2--1-2-3--2-3-2--1-3-----------2-3-2--1-2-3--2-3-2--1-

End
E-----------------------------------------
B-----------------------------------------
G-----------------------------------------
D-2-3-2--2-3-2----------------------------
A-2-3-2--2-3-2----------------------------
E-2-3-2--2-3-2----------------------------
Tap to rate this tab
 
# A B C D E F G H I J K L M N O P Q R S T U V W X Y Z