Song name
# A B C D E F G H I J K L M N O P Q R S T U V W X Y Z

Coal Chamber - Fiend tab

Rob.M

Tunning:  A E A D G B
/ = slide    . = palm mute

Intro:  X8
B||----------------------------------|
G||----------------------------------|
D||----------------------------------|
A||----------------------------------|
E||----------------------------------|
A||--5-2-2-5-2-2-5-2-5-2-2-5-2-2-5-2-|

Intro 2:  X1
B||-----------------------------------------------------------------|
G||-----------------------------------------------------------------|
D||-----------------------------------------------------------------|
A||--5-2-2-5-2-2-5-2-5-2-2-5-2-2-8-7-5-2-2-5-2-2-5-2-5-2-2-5-2-8--8-|
E||--5-2-2-5-2-2-5-2-5-2-2-5-2-2-8-7-5-2-2-5-2-2-5-2-5-2-2-5-2-8--8-|
A||--5-2-2-5-2-2-5-2-5-2-2-5-2-2-8-7-5-2-2-5-2-2-5-2-5-2-2-5-2-8--8-|

B||------------------------------------------------------------------|
G||------------------------------------------------------------------|
D||------------------------------------------------------------------|
A||--5-2-2-5-2-2-5-2-5-2-2-5-2-2-8-7-5-2-2-5-2-2-5-2-5-2-2-5-2-2-5-2-|
E||--5-2-2-5-2-2-5-2-5-2-2-5-2-2-8-7-5-2-2-5-2-2-5-2-5-2-2-5-2-2-5-2-|
A||--5-2-2-5-2-2-5-2-5-2-2-5-2-2-8-7-5-2-2-5-2-2-5-2-5-2-2-5-2-2-5-2-|

Verse:  X4
B||----------------------------------|
G||----------------------------------|
D||----------------------------------|
A||----------------------------------|
E||--5-2-2-5-2-2-5-2-5-2-2-5-2-2-5-2-|
A||--5-2-2-5-2-2-5-2-5-2-2-5-2-2-5-2-|

Chorus:  X1
B||-----------------------------------------------------------------|
G||-----------------------------------------------------------------|
D||-----------------------------------------------------------------|
A||--5-2-2-5-2-2-5-2-5-2-2-5-2-2-8-7-5-2-2-5-2-2-5-2-5-2-2-5-2-8--8-|
E||--5-2-2-5-2-2-5-2-5-2-2-5-2-2-8-7-5-2-2-5-2-2-5-2-5-2-2-5-2-8--8-|
A||--5-2-2-5-2-2-5-2-5-2-2-5-2-2-8-7-5-2-2-5-2-2-5-2-5-2-2-5-2-8--8-|

B||------------------------------------------------------------------|
G||------------------------------------------------------------------|
D||------------------------------------------------------------------|
A||--5-2-2-5-2-2-5-2-5-2-2-5-2-2-8-7-5-2-2-5-2-2-5-2-5-2-2-5-2-2-5-2-|
E||--5-2-2-5-2-2-5-2-5-2-2-5-2-2-8-7-5-2-2-5-2-2-5-2-5-2-2-5-2-2-5-2-|
A||--5-2-2-5-2-2-5-2-5-2-2-5-2-2-8-7-5-2-2-5-2-2-5-2-5-2-2-5-2-2-5-2-|

Verse:  X4

Interlude 1:  1x  "Still Reasoning..."
B||------------------------------------------------|
G||------------------------------------------------|
D||------------------------------------------------|
A||--665-665-665-665-66666666-665-665-665-665-6-65-|
E||--665-665-665-665-66666666-665-665-665-665-6-65-|
A||--665-665-665-665-66666666-665-665-665-665-6-65-|
     ... ... ... ... ........ ... ... ... ... . ..

B||--------------------------------------------------|
G||--------------------------------------------------|
D||--------------------------------------------------|
A||--665-665-665-665-66666666-665-665-665-665-6-6-7--|
E||--665-665-665-665-66666666-665-665-665-665-6-6-7--|
A||--665-665-665-665-66666666-665-665-665-665-6-6-7--|
     ... ... ... ... ........ ... ... ... ... . .

Chorus:  X1

Interlude 2:  1X  Another "Still reasoning..."
B||--------------------------------------------|
G||--------------------------------------------|
D||--------------------------------------------|
A||--------------------------------------------|
E||--11-10-10-11-10--11-10--11-10--11-10-11-10-|
A||--11-10-10-11-10--11-10--11-10--11-10-11-10-|

B||--------------------------------------------------|
G||--------------------------------------------------|
D||--------------------------------------------------|
A||--------------------------------------------------|
E||--11-10-10-11-10-10-11-10-11-10-10-11-10-10-11-10-|
A||--11-10-10-11-10-10-11-10-11-10-10-11-10-10-11-10-|

After the Interlude 2, play this X2
B||----------------------------------|
G||----------------------------------|
D||----------------------------------|
A||--54-4-44454-4-44454-4-444564-444-|
E||--54-4-44454-4-44454-4-444564-444-|
A||--54-4-44454-4-44454-4-444564-444-|

Interlude 1:  X1  "Still Reasoning..."

Chorus:  X2

End with Interlude 2:  X2
Tap to rate this tab
# A B C D E F G H I J K L M N O P Q R S T U V W X Y Z