Song name
# A B C D E F G H I J K L M N O P Q R S T U V W X Y Z

Coal Chamber - Shari Vegas tab

Help us improve GuitareTab! Take a short survey!
-------------------------------------------------------------------------------
			     SHARI VEGAS - Coal Chamber
-------------------------------------------------------------------------------

I couldent find any tabs for this song anywhere so I decided to try my hand at it. 
I've only been playing for 6 months so yeah wish me luck.

By: J.J. Nyari 
( manOfSorrow )


ITRODUCTION:

D|-------------------|  (You can try playing this on the 
A|-------------------|   G-string as well, Use the bridge 
F|-------------------|   pick-up(lowest selector position))
C|-------------------|
G|-------------------|
C|-7-0-3-0-3-6-5-0-3-|
  (Get those crazy efects you never use and use 'em here)




VERSE:

D|-----------------|
A|-----------------|
F|-----------------|
C|-7-0-3-0-3-6-0-3-|
G|-7-0-3-0-3-6-0-3-|
C|-7-0-3-0-3-6-0-3-|
  (Heavy Distortion Here)


sorry thats all I have as I get more experianced  will get 
a better tab up here

--------------------------------------------------------------------
Related for Shari Vegas tab