Song name
# A B C D E F G H I J K L M N O P Q R S T U V W X Y Z

Coal Chamber - El Cu Cuy tab

Help us improve GuitareTab! Take a short survey!
I'm not positive about the tuning, but I'm pretty sure that this is in the ball park, if 
right. Please be gentle, this is my first tab.

intro part 1: repeat twice


  -----------------------------------------------------------|
  -----------------------------------------------------------|
  -----------------------------------------------------------|
  -----------------------------------------------------------|
  -----------------------------------------------------------|
  -2-2-2-0-2-2-0-h2-0-h2-0-2-3---2-2-2-0-2-2-0-h2-0-h2-3-2-0-|

intro part 2: repeat 4 times
  ---------------------------------------------------------|
  ---------------------------------------------------------|
  ---------------------------------------------------------|
  ---------------------------------------------------------|
  -2-2-2-0-2-2-0-h2-0-h2-0-2-3---2-2-2-0-2-2-0-2-0-2-3-2-0-|
  -2-2-2-0-2-2-0-h2-0-h2-0-2-3---2-2-2-0-2-2-0-2-0-2-3-2-0-|

(note: the above parts and the chorus will repeat throughout the song. for the sake of 
things simple and easy to understand, i won't tab it again. you will have to figure out 
and how many times to play it yourself)

Chorus: repeat 8 times
  -------------------|
  -------------------|
  -------------------|
  -1-0-0-1-0-0-0-0-2-|
  -1-0-0-1-0-0-0-0-2-|
  -------------------|

after each chorus, play this twice:
  -----------------|
  -----------------|
  -----------------|
  -----------------|
  -3-2-5-4-3-2-1-0-|
  -----------------|
Related for El Cu Cuy tab