Song name
# A B C D E F G H I J K L M N O P Q R S T U V W X Y Z

Coal Chamber - Whats In Your Mind tab

What's In Your Mind 
 Coal Chamber
Tabed By: Phantom Stranger  
phantomstranger@chamber_internet.zzn.com 
 
Tuning Drop B (B, F#, B, E, G#, C#) 
 
*Spanish Backwords 
RIFF 1-Verses 
--------------------------| 
-------------------------.| 
--------------------------| 
-------------------------.| 
-4--0--4--0--4--0--4--2-4-| 
-4--0--4--0--4--0--4--2-4-| 
 
RIFF 2 -Chorus 
----------------------------------| 
----------------------------------| 
---------------------------------.| 
----------------5-------------3---| 
-2--2---2/3-2---3-------------1---| 
-2--2---2/3-2------2--2--2--2---1.| 
-2--2---2/3-2---8--2--2--2-3-2-0--| 
====
Tap to rate this tab
 
# A B C D E F G H I J K L M N O P Q R S T U V W X Y Z