Song name
# A B C D E F G H I J K L M N O P Q R S T U V W X Y Z

Coal Chamber - Anything But You tab

Band: Coal Chamber
Song: Anything but you
By Jonathan Bissonnette

Tuning B E A D G B

Verse w/chorus

|------------------------|
|------------------------|
|------------------------|
|------------------------|
|-7-8-10-8-7-5-5-3-5-7-7-|
|------------------------|

Chorus

|-------------------------------------------------|
|-------------------------------------------------|
|-------------------------------------------------|
|-------------------------------------------------|
|-9-9/10-10/12-12\10-10\9-9-9-9\7-7-7-7/9-9-9-9\7-|
|-7-7/8--8 /10-10\8--8 \7-7-7-7\5-5-5-5/7-7-7-7\5-|

Interlude

|------------------------|
|------------------------|
|------------------------|
|------------------------|
|-2-2--2-2--2-2--2-3-5-3-|
|-0-0--0-0--0-0--0-1-3-1-|

Bridge

|------------------------|
|------------------------|
|------------------------|
|------------------------|
|-2-2-10-10-9-9-9-10-9-2-|
|-0-0-8--8--7-7-7-8--7-0-|
Tap to rate this tab
 
# A B C D E F G H I J K L M N O P Q R S T U V W X Y Z